PrimaNota.ru - самый крупный в мире бесплатный архив песенных текстов, аккордов, табулатур и нот


Misc Unsigned Bands - Silent Conspiracies - Shattered Dreams - бас-таба

Регистрация Запомнить меня
Войти через:  Facebook Google Twitter Vk Yandex Mail.ru

Misc Unsigned Bands - Silent Conspiracies - Shattered Dreams - бас-таба

Печатать
Просмотров: 56
  Shattered Dreams - Silent Conspiracies
Tab Legend:
/ = slide up
~ = let ring


Intro                             Verse

Gb|---------------------|      |----------------------------------------------|
Db|---------------------| x3   |--------------(x16)--(x16)--------------------|
Ab|--5/7-5-3--0~--8/10--|      |--5/7--5--3--3------5------5/7--5-3--0~--8/10-|
Db|---------------------|      |----------------------------------------------|

                                 Pre-Chorus
Gb|--------------------|     |----------------------------|
Db|--------------------| x5  |--------------(x16)--(x16)--|
Ab|--5/7-5-3-0~--8/10--|     |--5/7--5--3--3------5-------|
Db|--------------------|     |----------------------------|

Chrous

Gb|--------------------|    |---------------------|       |-------------------|     |----------|
Db|--------------------| x4 |--------(x16)--(x16)-|  x2   |-------------------| x4  |----------|
Ab|--------------------|    |-------3------5------|       |-------------------|     |----------|
Db|--8653-33333-33333--|    |--865----------------|       |--8653-33333-3333--|     |--8655/8--|

    
     Verse 2 

Gb|--------------------|     |---------------------------------------------| |---------------------|
Db|--------------------| x4  |--------------(x16)--(x16)-------------------| |---------------------| x3
Ab|--5/7-5-3-0~--8/10--|     |--5/7--5--3--3------5------5/7--5-3--0~--8/10| |---5/7-5-3-0~--8/10--|
Db|--------------------|     |---------------------------------------------| |---------------------|

     Pre-Chorus

Gb|----------------------------|
Db|--------------(x16)--(x16)--|
Ab|--5/7--5--3--3------5-------|
Db|----------------------------|

    Chrous 2 

Gb|--------------------|    |---------------------|       |-------------------|     |----------|
Db|--------------------| x4 |--------(x16)--(x16)-|  x2   |-------------------| x4  |----------|
Ab|--------------------|    |-------3------5------|       |-------------------|     |----------|
Db|--8653-33333-33333--|    |--865----------------|       |--8653-33333-3333--|     |--8655/8--|

   
     Verse 3

Gb|--------------------|     |---------------------------| 
Db|--------------------| x4  |--------------(x16)--(x16)-| 
Ab|--5/7-5-3-0~--8/10--|     |--5/7--5--3--3------5------| 
Db|--------------------|     |---------------------------|


  Interlude/Outro

Gb|--------------------|    |---------------------| These stabs   |-------------------------------|
Db|--------------------| x4 |--------(x16)--(x16)-|    each before|-------------------------------|
Ab|--------------------|    |-------3------5------|  drum rolls   |-------------------------------|
Db|--8653-33333-33333--|    |--865----------------|               |--8653----8653----8653----8653-|


Gb|---------------------|     |---------------------| |-------------------|
Db|---------------------| X4  |--------(x16)--(x16)-| |-------------------|
Ab|---------------------|     |-------3------5------| |-------------------|
Db|--8653--33333-33333--|     |--865----------------| |--8~--6~--5~~--3~--|

    
Email me at Fay.Watson@Live.co.uk 
for any request's/issues you may have.
This tab is 100% correct being the bass player myself :)

Добавлено: 29.09.2013
Другие материалы по этой песне:
  • Аккорды и текст

Страница создана 29.09.2013
http://primanota.ru/misc-unsigned-bands/silent-conspiracies-shattered-dreams-chords.htm
Привет, Гость.
Предлагаем пройти революционный курс по гитаре.
Подарок от PrimaNota.Ru, забирай!