PrimaNota.ru - самый крупный в мире бесплатный архив песенных текстов, аккордов, табулатур и нот


Misc Unsigned Bands - Lonk - Project Windhoorn - бас-таба, драм-таба

Регистрация Запомнить меня
Войти через:  Facebook Google Twitter Vk Yandex Mail.ru

Misc Unsigned Bands - Lonk - Project Windhoorn - бас-таба, драм-таба

Печатать
Просмотров: 59
band:        Lonk
song:        Project Windhoorn
Bass player: Jorn Voets 


Intro: (only bass)

G:---------------------------------------------------------|
D:---------------------------------------------------------|
A:---------------------------------------------------------|
E:-2---2-2--2-2---5---5-5--5-5---4---4-4--4-4---7--7--7--7-|

(Now guitar and drum start to play)

G:---------------------------------------------------------|
D:---------------------------------------------------------|
A:---------------------------------------------------------|
E:-2---2-2--2-2---5---5-5--5-5---4---4-4--4-4---7--7--7--7-|


Verse:

G:---------------------------------------------------------|
D:---------------------------------------------------------|
A:---------------------------------------------------------|
E:-2---2-2--2-2---5---5-5--5-5---4---4-4--4-4---7--7--7--7-|

G:---------------------------------------------------------|
D:---------------------------------------------------------|
A:---------------------------------------------------------|
E:-2---2-2--2-2---5---5-5--5-5---4---4-4--4-4---7--7--7--7-|

G:---------------------------------------------------------|
D:---------------------------------------------------------|
A:---------------------------------------------------------|
E:-2---2-2--2-2---5---5-5--5-5---4---4-4--4-4---7--7--7--7-|

G:---------------------------------------------------------|
D:---------------------------------------------------------|
A:---------------------------------------------------------|
E:-2---2-2--2-2---5---5-5--5-5---4---4-4--4-4---7--7--7--7-|


Chorus:

G:-------------------------------------------------------------|
D:-------------------------------------------------------------|
A:-------------------------------------------------------------|
E:-2-2-2-22-22-2-2\5-5-5-55-55-5-5p4-4-4-44-44-4-4--7--7--7--7-|

G:-------------------------------------------------------------|
D:-------------------------------------------------------------|
A:-------------------------------------------------------------|
E:-2-2-2-22-22-2-2\5-5-5-55-55-5-5p4-4-4-44-44-4-4--7--7--7--7-|

G:-------------------------------------------------------------|
D:-------------------------------------------------------------|
A:-------------------------------------------------------------|
E:-2-2-2-22-22-2-2\5-5-5-55-55-5-5p4-4-4-44-44-4-4--7--7--7--7-|

G:-------------------------------------------------------------|
D:-------------------------------------------------------------|
A:-------------------------------------------------------------|
E:-2-2-2-22-22-2-2\5-5-5-55-55-5-5p4-4-4-44-44-4-4--7--7--7--7-|


Bridge:

G:------------------------------------------|
D:------------------------------------------|
A:------------------------------------------|
E:-2#--------5#--------4#--------7--7--7--7-|

G:------------------------------------------|
D:------------------------------------------|
A:------------------------------------------|
E:-2#--------5#--------4#--------7--7--7--7-|

Chorus:

G:-------------------------------------------------------------|
D:-------------------------------------------------------------|
A:-------------------------------------------------------------|
E:-2-2-2-22-22-2-2\5-5-5-55-55-5-5p4-4-4-44-44-4-4--7--7--7--7-|

G:-------------------------------------------------------------|
D:-------------------------------------------------------------|
A:-------------------------------------------------------------|
E:-2-2-2-22-22-2-2\5-5-5-55-55-5-5p4-4-4-44-44-4-4--7--7--7--7-|

G:-------------------------------------------------------------|
D:-------------------------------------------------------------|
A:-------------------------------------------------------------|
E:-2-2-2-22-22-2-2\5-5-5-55-55-5-5p4-4-4-44-44-4-4--7--7--7--7-|

G:-------------------------------------------------------------|
D:-------------------------------------------------------------|
A:-------------------------------------------------------------|
E:-2-2-2-22-22-2-2\5-5-5-55-55-5-5p4-4-4-44-44-4-4--7--7--7--7-|


Outro:

G:---------------------------------------------------------|
D:---------------------------------------------------------|
A:---------------------------------------------------------|
E:-2---2-2--2-2---5---5-5--5-5---4---4-4--4-4---7--7--7—-7*|

\ = slide down
P = Pull off
* = Let ring 
# = Mute Note
Добавлено: 24.02.2014
Другие материалы по этой песне:
  • Аккорды и текст

Страница создана 14.08.2013
http://primanota.ru/misc-unsigned-bands/lonk-project-windhoorn-chords.htm
Привет, Гость.
Предлагаем пройти революционный курс по гитаре.
Подарок от PrimaNota.Ru, забирай!