PrimaNota.ru - самый крупный в мире бесплатный архив песенных текстов, аккордов, табулатур и нот


Misc Unsigned Bands - Stillwater Giants - Tinted Facade - бас-таба

Регистрация Запомнить меня
Войти через:  Facebook Google Twitter Vk Yandex Mail.ru

Misc Unsigned Bands - Stillwater Giants - Tinted Facade - бас-таба

Печатать
Просмотров: 73
Уроки эстрадного вокала в Санкт-Петербурге
------------------------------------------------------------------------
                    Tinted Facade - Stillwater Giants
------------------------------------------------------------------------
Tabbed by: The Tuxedo
E-mail: 

Tuning: Standard (EADG)

Intro

Rest 2 measures, then


G|----------------|----------------|----------------|----------------|
D|7---------------|----------------|7---------------|----------------|
A|----------------|----------------|----------------|----------------|
E|----------------|----------------|----------------|----------------|

Pre-Verse x 2

G|----------------|--------7-------|
D|7---7---5---5---|4---4-------4-5-|
A|----------------|----------------|
E|----------------|----------------|

Verse x 4

G|----------------|----------------|
D|7---7---7---7-7-|7-7-7-7-7-7-7-7-|
A|----------------|----------------|
E|----------------|----------------|

Pre-Verse x 2

Verse x 2

Pre Chorus

G|----------------|----------------|----------------|----------------|
D|----------------|----------------|----------------|----------------|
A|7-7-7-7-7-7-7-7-|7-7-7-7-7-7-7-7-|2-2-2-2-2-2-2-2-|2-2-2-2-2-2-2-2-|
E|----------------|----------------|----------------|----------------|

Chorus x 2

G|----------------|----------------|----------------|----------------|
D|----------------|----------------|----------------|----------------|
A|----------------|2-2-2-2-2-2-2-2-|----------------|2-2-2-2-2-2-2-2-|
E|3-3-3-3-3-3-3-3-|----------------|3-3-3-3-3-3-3-3-|----------------|

G|----------------|----------------|
D|----------------|----------------|
A|5-5-5-5-5-5-5-5-|5-5-5-5-5-5-5-5-|
E|----------------|----------------|

Pre-Verse x 2

Verse x 4

Pre-Verse x 2

Verse x 2

Pre Chorus

Chorus x 2

Bridge Part 1

G|----------------|----------------|----------------|----------------|
D|----------------|----------------|----------------|----------------|
A|7-------2-------|3-3-3-3-3-3-3-3-|2-2-2-2-2-2-2-2-|2-2-2-2-2-2-2-2-|
E|----------------|----------------|----------------|----------------|

Bridge Part 2

G|----------------|----------------|----------------|
D|----------------|----------------|----------------|
A|7-------2-------|3-3-3-3-3-3-3-3-|3-3-3-3-3-3-3-3-|
E|----------------|----------------|----------------|

G|----------------|----------------|----------------|
D|----------------|----------------|----------------|
A|5-5-5-5-5-5-5-5-|5-5-5-5-5-5-5-5-|----------------|
E|----------------|----------------|3---------------|


Rest for a while, come in softly and growing louder with

G|----------------|----------------|
D|----------------|----------------|
A|5-5-5-5-5-5-5-5-|5-5-5-5-5-5-5-5-|
E|----------------|----------------|

Bridge Part 1 x 3

Bridge Part 2 but end with D5 instead of E3
Добавлено: 14.08.2013
Другие материалы по этой песне:
  • Аккорды и текст

Страница создана 14.08.2013
http://primanota.ru/misc-unsigned-bands/stillwater-giants-tinted-facade-chords.htm
Привет, Гость.
Предлагаем пройти революционный курс по гитаре.
Подарок от PrimaNota.Ru, забирай!