PrimaNota.ru - самый крупный в мире бесплатный архив песенных текстов, аккордов, табулатур и нот


Misc Unsigned Bands - Kittyjangles - Animal Rights - бас-таба

Регистрация Запомнить меня
Войти через:  Facebook Google Twitter Vk Yandex Mail.ru

Misc Unsigned Bands - Kittyjangles - Animal Rights - бас-таба

Печатать
Просмотров: 62
Drop C Tuning

Guitar - 4 bars, come in with drums

Intro/Verse 1
C-0-12-12-12-13-10--0-8-8-8-10-8-7-----|
A--------------------------------------|
D--------------------------------------|X4
G--------------------------------------|

Verse 2
Open the eyes...
C-5---0---5---0--|
A----------------|
D----------------|X2
G----------------|

Chorus
ieieieieieioh...
C-5--5-7-8-3--8-7--10-8-7-5----|
A------------------------------|
D------------------------------|X4
G------------------------------|

Variation
C-5--5-7-8--7-3--10-8-7-5----|
A----------------------------|
D----------------------------|
G----------------------------|

Hold F(5)
Guitar 4 bars

Bridge
C-0-2-3--2-3-5--3-2-(-3-2-0-0-)|    then   (-7-5-3-0-)
A------------------------------|
D------------------------------|X2
G------------------------------|

Verse 1
Verse 2
Chorus

Then guitar with a cool riff for 4 bars

Bridge 2: Similar to the first
A slap slide from 20 is cool, but optional
C-0-2-3--2-3-5--0-2-3--0h2h3h5-0h2h3h5-----|
A------------------------------------------|
D------------------------------------------|
G------------------------------------------|

Verse 2
Guitar riff to Chorus
Theres a break in this last Chorus that lends itself a pretty sweet slide.
Добавлено: 08.11.2013
Другие материалы по этой песне:
  • Аккорды и текст

Страница создана 08.11.2013
http://primanota.ru/misc-unsigned-bands/kittyjangles-animal-rights-chords.htm
Привет, Гость.
Предлагаем пройти революционный курс по гитаре.
Подарок от PrimaNota.Ru, забирай!