PrimaNota.ru - самый крупный в мире бесплатный архив песенных текстов, аккордов, табулатур и нот


Misc Unsigned Bands - Ken Ashcorp - Rival - бас-таба

Регистрация Запомнить меня
Войти через:  Facebook Google Twitter Vk Yandex Mail.ru

Misc Unsigned Bands - Ken Ashcorp - Rival - бас-таба

Печатать
Просмотров: 60
-------------------------------------------------------------------------------
                             Rival - Ken Ashcorp
-------------------------------------------------------------------------------
Tabbed by: TyrtleLord
E-mail: Qtpiedongman420@Gmail.com
Artist's Channel: http://www.youtube.com/channel/UCb0R-W7KDn4ZrY3uGrP4Acg

Tuning: Standard

G|---------------------------------------------------------------------------|
D|-----------2--3------------------------------------------------------------|
A|--0--2--3------------------------------------------------------------------|
E|---------------------------------------------------------------------------|
x 16

" You, were, heeereee~"
G|---------------------------------------------------------------------------|
D|---------------------------------------------------------------------------|
A|----------------3----------------------------------------------------------|
E|---3---5---7---------4---6-------------------------------------------------|


G|---------------------------------------------------------------------------|
D|---------------------------------------------5------5----------------------|
A|------3---------------5-----------------7-------7------5-------------------|
E|---1------3---5-----------1---3--------------------------------------------|

G|---------------------------------------------------------------------------|
D|---------------------------------------------------------------------------|
A|------3-----------------5------------7-------------------------------------|
E|---1------3---5-------------1---3--------4-----5---------------------------|

G|---------------------------------------------------------------------------|
D|-----------2--3------------------------------------------------------------|
A|--0--2--3------------------------------------------------------------------|
E|---------------------------------------------------------------------------|
x 4


G|---------------------------------------------------------------------------|
D|---------------------------------------------------------------------------|
A|-------3-------------------------------------------------------------------|
E|---5-------1---------------------------------------------------------------|
x4



G|---------------------------------------------------------------------------|
D|-----------2--3------------------------------------------------------------|
A|--0--2--3------------------------------------------------------------------|
E|---------------------------------------------------------------------------|
x 4



G|---------------------------------------------------------------------------|
D|---------------------------------------------------------------------------|
A|----------------3----------------------------------------------------------|
E|---3---5---7---------4---6-------------------------------------------------|



G|---------------------------------------------------------------------------|
D|---------------------------------------------5------5----------------------|
A|------3---------------5-----------------7-------7------5-------------------|
E|---1------3---5-----------1---3--------------------------------------------|

G|---------------------------------------------------------------------------|
D|---------------------------------------------------------------------------|
A|------3-----------------5--------------------------------------------------|
E|---1------3---5-------------1---3------------------------------------------|



G|---------------------------------------------------------------------------|
D|---------------------------------------------5------5----------------------|
A|------3---------------5-----------------7-------7------5-------------------|
E|---1------3---5-----------1---3--------------------------------------------|




G|---------------------------------------------------------------------------|
D|---------------------------------------------------------------------------|
A|------3-----------------5------------7-------------------------------------|
E|---1------3---5-------------1---3--------4-----5---------------------------|




G|---------------------------------------------------------------------------|
D|-----------2--3------------------------------------------------------------|
A|--0--2--3------------------------------------------------------------------|
E|---------------------------------------------------------------------------|
x 3




G|---------------------------------------------------------------------------|
D|-----------2--3------------------------------------------------------------|
A|--0--2--3------------------------------------------------------------------|
E|--------------------5------------------------------------------------------|



This is the first tab I've ever done, so if there are any mistakes feel free to e-mail 
me and let me know!
===============================================================================
Добавлено: 26.08.2013
Другие материалы по этой песне:
  • Аккорды и текст

Страница создана 26.08.2013
http://primanota.ru/misc-unsigned-bands/ken-ashcorp-rival-chords.htm
Привет, Гость.
Предлагаем пройти революционный курс по гитаре.
Подарок от PrimaNota.Ru, забирай!