PrimaNota.ru - самый крупный в мире бесплатный архив песенных текстов, аккордов, табулатур и нот


Misc Unsigned Bands - Gt Missonary - I Have Decided To Follow Jesus - таба

Регистрация Запомнить меня
Войти через:  Facebook Google Twitter Vk Yandex Mail.ru

Misc Unsigned Bands - Gt Missonary - I Have Decided To Follow Jesus - таба

Печатать
Просмотров: 113
Уроки эстрадного вокала в Санкт-Петербурге
-------------------------------------------------------------------------------
                    I have decided to follow Jesus  
-------------------------------------------------------------------------------
Tabbed by:
E-mail:
key of C
Tuning:E-A-D-G-B-e
-
e|-------------------------------------------------------------------------|
B|-------------------------------1-1--1-1--1--1--3--1----------------------|
G|---------0--0---0--2--0-------------------------------2--0---------------|
D|------2------------------2-----2-3--2-3--3--3--3--3---3--2---------------|
A|-3-3--3--3--3---3--3--3--3--3--------------------------------3-3---------|
E|-------------------------------------------------------------------------|
   I have decided to follow Jesus I have decided to follow Jesus I have 
e|---------------------------------------------------------------------------|
B|---------------------------------------------------------------------------|
G|---0--0--0--2--0--------0--2---0-------------------------------------------|
D|-2----------------2-----------------2---2-----0--0-------------------------|
A|-3-3--3--3--3--3--3--3--3--2---2----3---3--3--3--2---3---------------------|
E|-----------------------------------------------------3---------------------|
   decided to follow Jesus no turning back no turning back 
************************************

| /   slide up
| \   slide down
| h   hammer-on
| p   pull-off
| ~   vibrato
| +   harmonic
| x   Mute note
| b   Bend
| pb  Pre-bend
| br  Bend release
| pbr Pre-bend release
| brb Bend release bend

************************************
Добавлено: 17.10.2015
Другие материалы по этой песне:
  • Аккорды и текст

Страница создана 17.10.2015
http://primanota.ru/misc-unsigned-bands/gt-missonary-i-have-decided-to-follow-jesus-chords.htm
Привет, Гость.
Предлагаем пройти революционный курс по гитаре.
Подарок от PrimaNota.Ru, забирай!