PrimaNota.ru - самый крупный в мире бесплатный архив песенных текстов, аккордов, табулатур и нот


Misc Unsigned Bands - Henry Margulies - Spanish Boots - таба

Регистрация Запомнить меня
Войти через:  Facebook Google Twitter Vk Yandex Mail.ru

Misc Unsigned Bands - Henry Margulies - Spanish Boots - таба

Печатать
Просмотров: 90
p = pull off
h = hammer on
\ = slide (downward)
b = string bend
/ = slide (upward)
~ = string vibrato
˄ = play chord upwards from high E
˅ = play chord downwards from low E

Based off of Malaguena mainly, then also Spanish Romance, and Asturias.
Arranged by: Henry Margulies


How to play:
Song starts slow, slowly builds up. Keep the high E quiet at first, then slowly move it 
to the base of the guitar to get it louder. 
I.   Play the repeating high E with the index finger.
II.  Play the repeating high E with the index finger and middle finger quickly.
III. Play the repeating high E with the index, middle and ring fingers in VERY quick succession.

Intro  |Quiet, very slow

E|--------------------------------------|     
B|--------0--------0-----1--0-----------|
G|-----1--------1-----2--------2--0-----|      2x
D|--2--------2-----------------------3--|
A|--------------------------------------|
E|--------------------------------------|

I. |Soft and Slow, slightly getting faster and louder every repetition

E|-----0-----0-----0-----0-----0-----0-----0-----0-----0-----0-----0-----0--|
B|--------------0-----------------0-----------1-----0-----------------------|
G|--------1-----------------1-----------2-----------------2-----0-----------|      4x
D|--2-----------------2-----------------------------------------------3-----|
A|--------------------------------------------------------------------------|
E|--------------------------------------------------------------------------|

Verse I   |Fast                          
   ˅                                                               ˅ ˄ ˅
E|-0---0--1--3--1--0-----------------------------------------------0-0-0------|
B|-0------------------0--3--1--0-----------------------------------0-0-0------|
G|-1~~~---------------------------2--1--2--------------------------1-1-1~~~~~~|
D|-2~~~------------------------------------3--2--------------------2-2-2~~~~~~|
A|-2~~~------------------------------------------3--2--3-----------2-2-2~~~~~~|
E|-0------------------------------------------------------3--1--0--0-0-0------|

II.  |Medium Speed, getting faster every repetition

E|-----00----00----00----00----00----00----00----00----00----00----00----00-|
B|--------------0-----------------0-----------1-----0-----------------------|
G|--------1-----------------1-----------2-----------------2-----0-----------|      4x
D|--2-----------------2-----------------------------------------------3-----|
A|--------------------------------------------------------------------------|
E|--------------------------------------------------------------------------|

Verse II   |Medium Speed    
                
   ˅                                                                                      ˅ ˄ ˅
E|-0---------------0-1-0-----0-1-0--------------------------------------------------------0-0-0------|
B|-0---0-1-3/4\3~~~-----3-1-0-----3-1-0----0-1-3/4\3~~~-----------------------------------0-0-0------|
G|-1~~~------------------------------------------------2--1--2----------------------------1-1-1~~~~~~|
D|-2~~~---------------------------------------------------------3--2----------------------2-2-2~~~~~~|
A|-2~~~---------------------------------------------------------------3--2--3-------------2-2-2~~~~~~|
E|-0---------------------------------------------------------------------------3--1--0----0-0-0------|

III.  |Very Fast, getting even faster every repetition

E|----000---000---000---000---000---000---000---000---000---000---000---000-|
B|--------------0-----------------0-----------1-----0-----------------------|
G|--------1-----------------1-----------2-----------------2-----0-----------|      4x
D|--2-----------------2-----------------------------------------------3-----|
A|--------------------------------------------------------------------------|
E|--------------------------------------------------------------------------|

Verse III   |Loud, Slow to Medium Speed

   ˅   ˅ ˄ ˅    ˅  ˅  ˄  ˅   ˅  ˅  ˄  ˅   ˅  ˅  ˄  ˅   ˅  ˅  ˄  ˅   ˅  
E|-0---0-0-0----0--0--0--0---0--0--0--0---0--0--0--0---0--0--0--0---0--|
B|-0---0-0-0----0--0--0--0---0--0--0--0---0--0--0--0---0--0--0--0---0--|
G|-1~~~1-1-1----1~-1~-1~-1~--2~-2~-2~-2~--4~-4~-4~-4~--2~-2~-2~-2~--1~-|
D|-2~~~2-2-2----2~-2~-2~-2~--3~-3~-3~-3~--5~-5~-5~-5~--3~-3~-3~-3~--2~-|
A|-2~~~2-2-2----2~-2~-2~-2~--3~-3~-3~-3~--5~-5~-5~-5~--3~-3~-3~-3~--2~-|
E|-0---0-0-0----0--0--0--0---0--0--0--0---0--0--0--0---0--0--0--0---0--|

Outro  |Fast

E|--5----------5--------5--------5--------5--------8--------8--------7--------5--|
B|--5-------5--------5--------5--------5--------5--------5--------5--------5-----|
G|--5----5--------5--------5--------5--------5--------5--------5--------5--------|
D|-------------------------------------------------------------------------------|
A|-------------------------------------------------------------------------------|
E|-------------------------------------------------------------------------------|

E|--------4--------4--------4--------4--------4--------4--------5--------4--------3-|
B|-----3--------3--------3--------3--------3--------3--------3--------3--------3----|
G|--4--------4--------4--------4--------4--------4--------4--------4--------4-------|
D|----------------------------------------------------------------------------------|
A|----------------------------------------------------------------------------------|
E|----------------------------------------------------------------------------------|

E|--------2--------2--------2--------2--------2--------2--------0-------0----------|
B|-----3--------3--------1--------1--------1--------1--------1-------1-----------1-|
G|--4--------4--------2--------2--------2--------2--------2-------2-----------2----|
D|-------------------------------------------------------------------------3-------|
A|---------------------------------------------------------------------------------|
E|---------------------------------------------------------------------------------|

E|-----------------------------------------------------------------------------------------------------|
B|--------1--------1--------1--------0--------0--------0--------0--------1--------1--------0--------0--|
G|-----2--------2--------2--------1--------1--------1--------1--------2--------2--------1--------1-----|
D|--3--------3--------3--------------------------------------------3--------3--------------------------|
A|-----------------------------2--------2--------2--------2--------------------------2--------2--------|
E|-----------------------------------------------------------------------------------------------------|

E|--------------------------------------------------------------------------------------------------|
B|--------1--------1--------0--------0--------1--------0--------1--------0--------1--------0--1--0--|
G|-----2--------2--------1--------1--------2--------1--------2--------1--------2--------1-----2--1--|
D|--3--------3--------------------------3-----------------3-----------------3-----------------3-----|
A|--------------------2--------2-----------------2-----------------2-----------------2-----------2--|
E|--------------------------------------------------------------------------------------------------|

Ending    |Slow
E|-----------0------5~~~--||
B|--------0--0------5~~~--||
G|-----1------------5~~~--||
D|------------------------||
A|--2---------------------||
E|------------------------||
Добавлено: 17.10.2015
Другие материалы по этой песне:
  • Аккорды и текст

Страница создана 17.10.2015
http://primanota.ru/misc-unsigned-bands/henry-margulies-spanish-boots-chords.htm
Привет, Гость.
Предлагаем пройти революционный курс по гитаре.
Подарок от PrimaNota.Ru, забирай!