PrimaNota.ru - самый крупный в мире бесплатный архив песенных текстов, аккордов, табулатур и нот


Misc Unsigned Bands - John T - Relentless - таба, видео

Регистрация Запомнить меня
Войти через:  Facebook Google Twitter Vk Yandex Mail.ru

Misc Unsigned Bands - John T - Relentless - таба, видео

Печатать
Просмотров: 118
Уроки эстрадного вокала в Санкт-Петербурге
Title: Relentless
Artist: John T.
Copyright: John T.
Tempo = 200
Lead Guitar
Tuning - Drop D (DADGBE)
Legend
L - tied note
x - dead note
h - hammer on/pull off
b - bend
s - slide
~ - vibrato
g - ghost note
> - accentuated note
t - trill
M - palm mute
. - staccato
P - popping (bass)
S - slapping (bass)
+ - tapping
W - wide vibrato
< - fade in
w - whammy bar
= - tremolo picking
v - brush up
^ - brush down
V - pick stroke up
n - pick stroke down

                                                                        
E |-------|-------|----------------------------------------------------|
B |-------|-------|----------------------------------------------------|
G |-------|-------|--------------------9M-9M-10M10M9M-9M---------------|
D |-------|-------|--7M-7M-9M-9M-10M10M------------------10M10M9M-9M---|
A |-------|-------|----------------------------------------------------|
D |-------|-------|----------------------------------------------------|

                                                     
----------------------------------------------------|
----------------------------------------------------|
--------10M10M9M-9M-7M-7M---------------------------|
--7M-7M-------------------10M10M9M-9M-7M-7M-6M-6M---|
----------------------------------------------------|
----------------------------------------------------|

                                                     
--5M-5M-7M-7M-8M-8M-12M12M13M13M12M12M--------------|
--------------------------------------13M13M12M12M--|
----------------------------------------------------|
----------------------------------------------------|
----------------------------------------------------|
----------------------------------------------------|

                                                     
--------13M13M12M12M10M10M8M-8M-7M-7M-5M-5M-4M-4M---|
--10M10M--------------------------------------------|
----------------------------------------------------|
----------------------------------------------------|
----------------------------------------------------|
----------------------------------------------------|

                                                     
----------------------------------------------------|
----------------------------------------------------|
--------------2M-2M-4M-4M-5M-5M-4M-4M-2M-2M---------|
--3M-3M-6M-6M-------------------------------6M-6M---|
----------------------------------------------------|
----------------------------------------------------|

                                                                  =  =     
--------4M-4M-5M-5M-7M-7M-8M-8M-7M-7M-5M-5M-4M-4M---|----------|----------|
--6M-6M---------------------------------------------|--5s-13---|--12------|
----------------------------------------------------|----------|-----13---|
----------------------------------------------------|----------|----------|
----------------------------------------------------|----------|----------|
----------------------------------------------------|----------|----------|

                                                     
----------------------------------------------------|
----------------------------------------------------|
--------------------9M-9M-10M10M9M-9M---------------|
--7M-7M-9M-9M-10M10M------------------10M10M9M-9M---|
----------------------------------------------------|
----------------------------------------------------|

                                                     
----------------------------------------------------|
----------------------------------------------------|
--------10M10M9M-9M-7M-7M---------------------------|
--7M-7M-------------------10M10M9M-9M-7M-7M-6M-6M---|
----------------------------------------------------|
----------------------------------------------------|

                                                     
--5M-5M-7M-7M-8M-8M-12M12M13M13M12M12M--------------|
--------------------------------------13M13M12M12M--|
----------------------------------------------------|
----------------------------------------------------|
----------------------------------------------------|
----------------------------------------------------|

                                                     
--------13M13M12M12M10M10M8M-8M-7M-7M-5M-5M-4M-4M---|
--10M10M--------------------------------------------|
----------------------------------------------------|
----------------------------------------------------|
----------------------------------------------------|
----------------------------------------------------|

                                                     
----------------------------------------------------|
----------------------------------------------------|
--------------2M-2M-4M-4M-5M-5M-4M-4M-2M-2M---------|
--3M-3M-6M-6M-------------------------------6M-6M---|
----------------------------------------------------|
----------------------------------------------------|

                                                                  =  =     
--------4M-4M-5M-5M-7M-7M-8M-8M-7M-7M-5M-5M-4M-4M---|----------|----------|
--6M-6M---------------------------------------------|--5s-13---|--12------|
----------------------------------------------------|----------|-----13---|
----------------------------------------------------|----------|----------|
----------------------------------------------------|----------|----------|
----------------------------------------------------|----------|----------|

                                                     
----------------------------------------------------|
----------------------------------------------------|
--------------------9M-9M-10M10M9M-9M---------------|
--7M-7M-9M-9M-10M10M------------------10M10M9M-9M---|
----------------------------------------------------|
----------------------------------------------------|

                                                     
----------------------------------------------------|
----------------------------------------------------|
--------10M10M9M-9M-7M-7M---------------------------|
--7M-7M-------------------10M10M9M-9M-7M-7M-6M-6M---|
----------------------------------------------------|
----------------------------------------------------|

                                                     
--5M-5M-7M-7M-8M-8M-12M12M13M13M12M12M--------------|
--------------------------------------13M13M12M12M--|
----------------------------------------------------|
----------------------------------------------------|
----------------------------------------------------|
----------------------------------------------------|

                                                     
--------13M13M12M12M10M10M8M-8M-7M-7M-5M-5M-4M-4M---|
--10M10M--------------------------------------------|
----------------------------------------------------|
----------------------------------------------------|
----------------------------------------------------|
----------------------------------------------------|

                                                     
----------------------------------------------------|
----------------------------------------------------|
--------------2M-2M-4M-4M-5M-5M-4M-4M-2M-2M---------|
--3M-3M-6M-6M-------------------------------6M-6M---|
----------------------------------------------------|
----------------------------------------------------|

                                                                  =  =     
--------4M-4M-5M-5M-7M-7M-8M-8M-7M-7M-5M-5M-4M-4M---|----------|----------|
--6M-6M---------------------------------------------|--5s-13---|--12------|
----------------------------------------------------|----------|-----13---|
----------------------------------------------------|----------|----------|
----------------------------------------------------|----------|----------|
----------------------------------------------------|----------|----------|

                                                          
----------------------------|----------------------------|
----------------------------|----------------------------|
-----------12h14h12---------|-----14h12------------------|
-----12h14----------14h12---|-----------15h14h12---------|
--12------------------------|--12----------------12h11---|
----------------------------|----------------------------|

  =  =  =  =  =  =  =  =       =  =  =  =  =  =  =  =     
----------------------------|----------------------------|
----------------------------|----------------------------|
-----------12-14-12---------|-----14-12------------------|
-----12-14----------14-12---|-----------15-14-12---------|
--12------------------------|--12----------------12-11---|
----------------------------|----------------------------|

                                                          
-----10h12-15h17h15---------|-----17h15-13h12h10---------|
--10----------------17h15---|--------------------10h9----|
----------------------------|--14------------------------|
----------------------------|----------------------------|
----------------------------|----------------------------|
----------------------------|----------------------------|

  =  =  =  =  =  =  =  =       =  =  =  =  =  =  =                =  =     
-----10-12-15-17-15---------|-----17-15-13-12-10---------|----------------|
--10----------------17-15---|--------------------10-9s---|--5-----13-12---|
----------------------------|--14------------------------|----------------|
----------------------------|----------------------------|----------------|
----------------------------|----------------------------|----------------|
----------------------------|----------------------------|----------------|

  =  =       =       =  =  =       =       =  =  =       =       =  =  =     
----------|-------|-------------|-------|-------------|-------|-------------|
--12------|--10---|--13-12-10---|--9----|--15-13-12---|--13---|--17-15-13---|
-----13---|-------|-------------|-------|-------------|-------|-------------|
----------|-------|-------------|-------|-------------|-------|-------------|
----------|-------|-------------|-------|-------------|-------|-------------|
----------|-------|-------------|-------|-------------|-------|-------------|

                                  =  =  =                              
--------------------12s17s--|--12------------|-------|----------------|
-----------------13---------|-----13-15-17---|--17L--|--17L------17s--|
-----------12h14------------|----------------|-------|----------------|
--------14------------------|----------------|-------|----------------|
--12h15---------------------|----------------|-------|----------------|
----------------------------|----------------|-------|----------------|

        =  =       =  =       =       =  =  =       =       =  =  =       =     
----------------|----------|-------|-------------|-------|-------------|-------|
--5-----13-12---|--12------|--10---|--13-12-10---|--9----|--15-13-12---|--13---|
----------------|-----13---|-------|-------------|-------|-------------|-------|
----------------|----------|-------|-------------|-------|-------------|-------|
----------------|----------|-------|-------------|-------|-------------|-------|
----------------|----------|-------|-------------|-------|-------------|-------|

  =  =  =                                       =  =  =                     
-------------|--------------------12s17s--|--12------------|-------|-------|
--17-15-13---|-----------------13---------|-----13-15-17---|--17L--|--17---|
-------------|-----------12h14------------|----------------|-------|-------|
-------------|--------14------------------|----------------|-------|-------|
-------------|--12h15---------------------|----------------|-------|-------|
-------------|----------------------------|----------------|-------|-------|

                                                                
-------|-------|-------|-------|-------|-------|-------|-------|
-------|-------|-------|-------|-------|-------|-------|-------|
-------|-------|-------|-------|-------|-------|-------|-------|
-------|-------|-------|-------|-------|-------|-------|-------|
-------|-------|-------|-------|-------|-------|-------|-------|
-------|-------|-------|-------|-------|-------|-------|-------|

                                                     
----------------------------------------------------|
----------------------------------------------------|
----------------------------------------------------|
----------------------------------------------------|
--0M----0M----------------0M-0M-0M-0M-------0L------|
--0M----0M----------------0M-0M-0M-0M-------0L------|

                                                     
----------------------------------------------------|
----------------------------------------------------|
----------------------------------------------------|
----------------------------------------------------|
--0M----------0M-0M-0M-0M-0M----------0M----0M------|
--0M----------0M-0M-0M-0M-0M----------0M----0M------|

                                                                             
----------------------------------------------------------------------------|
----------------------------------------------------------------------------|
----------------------------------------------------------------------------|
----------------------------------------------------------------------------|
--0M-------0M-------0M----------------------------------0M----0M----0L------|
--0M-------0M-------0M----------------------------------0M----0M----0L------|

                                                                             
----------------------------------------------------------------------------|
----------------------------------------------------------------------------|
----------------------------------------------------------------------------|
----------------------------------------------------------------------------|
--0M----------------0M----0M----0L----0M-------0M-------0M------------------|
--0M----------------0M----0M----0L----0M-------0M-------0M------------------|

                                                     
----------------------------------------------------|
----------------------------------------------------|
----------------------------------------------------|
----------------------------------------------------|
--------------------------0M----0M----0M----0L------|
--6--6--6--6L-6-----------0M----0M----0M----0L------|

                                                          
----------------------------|----------------------------|
----------------------------|-----------------------8----|
----------------------------|--------------7h-9----------|
----------------------------|--9h-10---------------------|
--0M----0M----------0M-0M---|----------------------------|
--0M----0M----------0M-0M---|----------------------------|

                                                                                
--------------------------------------------------------------------------------
--------------------------------------------------------------------------------
--------------------------------------------------------7h-------9--------------
--------------------------------------9h-------10-------------------------------
--------------------------------------------------------------------------------
--------------------------------------------------------------------------------

                                                                     
------------------------------7h----------8h----------7-------------|
--------------------------------------------------------------------|
--------------------------------------------------------------------|
--------------------------------------------------------------------|
--------------------------------------------------------------------|
--------------------------------------------------------------------|

                                                          
----------------------------|----------------------------|
--8-----------------8-------|----------------------------|
-----------------------9----|--------7h-5-----5h-4-------|
----------------------------|----------------------------|
----------------------------|----------------------------|
----------------------------|----------------------------|

                               =             =           =        
----------------------------|-------|----------------------------|
----------------------------|-------|-----------------------8----|
----------------------------|-------|--------------7h-9--9-------|
--5h-7--7-------------------|--7----|--9h-10-10------------------|
----------------------------|-------|----------------------------|
----------------------------|-------|----------------------------|

  =                                                                             
--------------------------------------------------------------------------------
--8-----------------------------------------------------------------------------
--------------------------------------------------------7h-------9--------9M----
--------------------------------------9h-------10-------------------------------
--------------------------------------------------------------------------------
--------------------------------------------------------------------------------

                                                                     
------------------------------7h----------8h----------7-------------|
--------------------------------------------------------------------|
------------9M------------------------------------------------------|
--------------------------------------------------------------------|
--------------------------------------------------------------------|
--------------------------------------------------------------------|

           =                   =                          
----------------------------|----------------------------|
--8--------8--------8-------|----------------------------|
-----------------------9----|--9-----7h-5--5M-5h-4--4M---|
----------------------------|----------------------------|
----------------------------|----------------------------|
----------------------------|----------------------------|

                               =                     
----------------------------|-------|-------|-------|
----------------------------|-------|-------|-------|
----------------------------|-------|-------|-------|
--5h-7--7-------------------|--7----|-------|-------|
----------------------------|-------|-------|-------|
----------------------------|-------|-------|-------|

                                                     
----------------------------------------------------|
----------------------------------------------------|
--------------------9--9--10-10-9--9----------------|
--7--7--9--9--10-10-------------------10-10-9--9----|
----------------------------------------------------|
----------------------------------------------------|

                                                     
----------------------------------------------------|
----------------------------------------------------|
--------10-10-9--9--7--7----------------------------|
--7--7--------------------10-10-9--9--7--7--6--6----|
----------------------------------------------------|
----------------------------------------------------|

                                                     
--5--5--7--7--8--8--12-12-13-13-12-12---------------|
--------------------------------------13-13-12-12---|
----------------------------------------------------|
----------------------------------------------------|
----------------------------------------------------|
----------------------------------------------------|

                                                     
--------13-13-12-12-10-10-8--8--7--7--5--5--4--4----|
--10-10---------------------------------------------|
----------------------------------------------------|
----------------------------------------------------|
----------------------------------------------------|
----------------------------------------------------|

                                                     
----------------------------------------------------|
----------------------------------------------------|
--------------2--2--4--4--5--5--4--4--2--2----------|
--3--3--6--6--------------------------------6--6----|
----------------------------------------------------|
----------------------------------------------------|

                                                                  =  =     
--------4--4--5--5--7--7--8--8--7--7--5--5--4--4----|----------|----------|
--6--6----------------------------------------------|--5s-13---|--12------|
----------------------------------------------------|----------|-----13---|
----------------------------------------------------|----------|----------|
----------------------------------------------------|----------|----------|
----------------------------------------------------|----------|----------|

                                                     
----------------------------------------------------|
----------------------------------------------------|
--------------------9--9--10-10-9--9----------------|
--7--7--9--9--10-10-------------------10-10-9--9----|
----------------------------------------------------|
----------------------------------------------------|

                                                     
----------------------------------------------------|
----------------------------------------------------|
--------10-10-9--9--7--7----------------------------|
--7--7--------------------10-10-9--9--7--7--6--6----|
----------------------------------------------------|
----------------------------------------------------|

                                                     
--5--5--7--7--8--8--12-12-13-13-12-12---------------|
--------------------------------------13-13-12-12---|
----------------------------------------------------|
----------------------------------------------------|
----------------------------------------------------|
----------------------------------------------------|

                                                     
--------13-13-12-12-10-10-8--8--7--7--5--5--4--4----|
--10-10---------------------------------------------|
----------------------------------------------------|
----------------------------------------------------|
----------------------------------------------------|
----------------------------------------------------|

                                                     
----------------------------------------------------|
----------------------------------------------------|
--------------2--2--4--4--5--5--4--4--2--2----------|
--3--3--6--6--------------------------------6--6----|
----------------------------------------------------|
----------------------------------------------------|

                                                                  =  =     
--------4--4--5--5--7--7--8--8--7--7--5--5--4--4----|----------|----------|
--6--6----------------------------------------------|--5s-13---|--12------|
----------------------------------------------------|----------|-----13---|
----------------------------------------------------|----------|----------|
----------------------------------------------------|----------|----------|
----------------------------------------------------|----------|----------|

                                                                             
-------|-------|-------|-------|-------|-------|----------------------------|
-------|-------|-------|-------|-------|-------|----------------------------|
-------|-------|-------|-------|-------|-------|----------------------------|
-------|-------|-------|-------|-------|-------|--7h-6----------------------|
-------|-------|-------|-------|-------|-------|--------8h-7--------11------|
-------|-------|-------|-------|-------|-------|--------------10h9----------|

                                                     
----------------------------------------------------|
----------------------------------------------------|
----------------------------------------------------|
--7M-7M-6M-6M---------------------------------------|
--------------8M-8M-7M-7M-------------11M11M11M11M--|
--------------------------10M10M9M-9M---------------|

                             
----------------------------|
--10h9--------------9-------|
--------10h9----------------|
--------------10h9----------|
----------------------------|
----------------------------|

                                                     
--------------------0M-0M-------------4M-4M-4M-4M---|
--10M10M9M-9M-------------1M-1M-0M-0M---------------|
--------------10M10M--------------------------------|
----------------------------------------------------|
----------------------------------------------------|
----------------------------------------------------|

                                                     
----------------------------------------------------|
----------------------------------------------------|
----------------------------------------------------|
----------------------------------------------------|
----------------------------------------------------|
--------------------------10-10-10-10-10-10-10-10---|

                                                     
----------------------------------------------------|
----------------------------------------------------|
----------------------------------------------------|
----------------------------------------------------|
----------------------------------------------------|
--------------------------9--9--9--9--9--9--9--9----|

                                                     
----------------------------------------------------|
----------------------------------------------------|
----------------------------------------------------|
----------------------------------------------------|
----------------------------------------------------|
--------------------------7--7--7--7--7--7--7--7----|

                                                                     
----------------------------------------------------|-------|-------|
----------------------------------------------------|-------|-------|
----------------------------------------------------|-------|-------|
----------------------------------------------------|-------|-------|
----------------------------------------------------|-------|--7----|
--------------------------9--9--9--9--9--9--9--9----|-------|--9----|

                                                          
----------------------------|----------------------------|
----------------------------|----------------------------|
--9--9--9--9--9--9--9--9----|--10-10-10-10-10-10-10-10---|
----------------------------|----------------------------|
--7--7--7--7--7--7--7--7----|--8--8--8--8--8--8--8--8----|
----------------------------|----------------------------|

                                                          
----------------------------|----------------------------|
----------------------------|----------------------------|
--14-14-14-14-14-14-14-14---|--13-13-13-13-13-13-13-13---|
----------------------------|----------------------------|
--12-12-12-12-12-12-12-12---|--11-11-11-11-11-11-11-11---|
----------------------------|----------------------------|

                                                          
----------------------------|----------------------------|
----------------------------|----------------------------|
--14-14-14-14-14-14-14-14---|--13-13-13-13-13-13-13-13---|
----------------------------|----------------------------|
--12-12-12-12-12-12-12-12---|--11-11-11-11-11-11-11-11---|
----------------------------|----------------------------|

                                                          
----------------------------|----------------------------|
----------------------------|----------------------------|
--9--9--9--9--9--9--9--9----|--10-10-10-10-10-10-10-10---|
----------------------------|----------------------------|
--7--7--7--7--7--7--7--7----|--8--8--8--8--8--8--8--8----|
----------------------------|----------------------------|

                                                          
----------------------------|----------------------------|
----------------------------|----------------------------|
--14-14-14-14-14-14-14-14---|--13-13-13-13-13-13-13-13---|
----------------------------|----------------------------|
--12-12-12-12-12-12-12-12---|--11-11-11-11-11-11-11-11---|
----------------------------|----------------------------|

                                                                          
----------------------------|----------------------------|-------|-------|
----------------------------|----------------------------|-------|-------|
--14-14-14-14-14-14-14-14---|--13-13-13-13-13-13-13-13---|--13L--|--13---|
----------------------------|----------------------------|-------|-------|
--12-12-12-12-12-12-12-12---|--11-11-11-11-11-11-11-11---|--11L--|--11---|
----------------------------|----------------------------|-------|-------|

           =       =  =       =       =  =  =       =       =  =  =       =     
----------------|----------|-------|-------------|-------|-------------|-------|
--5s----13-12---|--12------|--10---|--13-12-10---|--9----|--15-13-12---|--13---|
----------------|-----13---|-------|-------------|-------|-------------|-------|
----------------|----------|-------|-------------|-------|-------------|-------|
----------------|----------|-------|-------------|-------|-------------|-------|
----------------|----------|-------|-------------|-------|-------------|-------|

  =  =  =                                       =  =  =             
-------------|--------------------12s17s--|--12------------|-------|
--17-15-13---|-----------------13---------|-----13-15-17---|--17L--|
-------------|-----------12h14------------|----------------|-------|
-------------|--------14------------------|----------------|-------|
-------------|--12h15---------------------|----------------|-------|
-------------|----------------------------|----------------|-------|

                         =  =       =  =       =       =  =  =       =     
----------------|----------------|----------|-------|-------------|-------|
--17L------17s--|--5-----13-12---|--12------|--10---|--13-12-10---|--9----|
----------------|----------------|-----13---|-------|-------------|-------|
----------------|----------------|----------|-------|-------------|-------|
----------------|----------------|----------|-------|-------------|-------|
----------------|----------------|----------|-------|-------------|-------|

  =  =  =       =       =  =  =                                  
-------------|-------|-------------|--------------------12s17s--|
--15-13-12---|--13---|--17-15-13---|-----------------13---------|
-------------|-------|-------------|-----------12h14------------|
-------------|-------|-------------|--------14------------------|
-------------|-------|-------------|--12h15---------------------|
-------------|-------|-------------|----------------------------|

     =  =  =
--12------------|-------|-------|-------||
-----13-15-17---|--17L--|--17---|--17---||
----------------|-------|-------|-------||
----------------|-------|-------|-------||
----------------|-------|-------|-------||
----------------|-------|-------|-------||
_________________________________________________
___________________________________________________
_______________________________________________________
_____________________________________________________________
Rhythm Guitar
                                                                           
E |-------|-------|-------|-------|-------|-------|-------|-------|-------|
B |-------|-------|-------|-------|-------|-------|-------|-------|-------|
G |-------|-------|-------|-------|-------|-------|-------|-------|-------|
D |-------|-------|-------|-------|-------|-------|-------|-------|-------|
A |-------|-------|-------|-------|-------|-------|-------|-------|-------|
D |-------|-------|-------|-------|-------|-------|-------|-------|-------|

          <                                          
-------|-------|-------|----------------------------|
-------|-------|-------|----------------------------|
-------|-------|-------|----------------------------|
-------|--7L---|--7----|----------------------------|
-------|--7L---|--7----|--7M----7M-7M-7M-7M-7M-7M---|
-------|--7L---|--7----|--7M----7M-7M-7M-7M-7M-7M---|

                                                                     
----------------------------------------------------|-------|-------|
----------------------------------------------------|-------|-------|
----------------------------------------------------|-------|-------|
----------------------------------------------------|--3L---|--3----|
--7M----7M----7M-7M-7M-7M-7M----7M----7M------------|--3L---|--3----|
--7M----7M----7M-7M-7M-7M-7M----7M----7M------------|--3L---|--3----|

                             
----------------------------|
----------------------------|
----------------------------|
----------------------------|
--3M----3M-3M-3M-3M-3M-3M---|
--3M----3M-3M-3M-3M-3M-3M---|

                                                                     
----------------------------------------------------|-------|-------|
----------------------------------------------------|-------|-------|
----------------------------------------------------|-------|-------|
----------------------------------------------------|--7L---|--7----|
--3M----3M----3M-3M-3M-3M-3M----3M----3M------------|--7L---|--7----|
--3M----3M----3M-3M-3M-3M-3M----3M----3M------------|--7L---|--7----|

                             
----------------------------|
----------------------------|
----------------------------|
----------------------------|
--7M----7M-7M-7M-7M-7M-7M---|
--7M----7M-7M-7M-7M-7M-7M---|

                                                                     
----------------------------------------------------|-------|-------|
----------------------------------------------------|-------|-------|
----------------------------------------------------|-------|-------|
----------------------------------------------------|--3L---|--3----|
--7M----7M----7M-7M-7M-7M-7M----7M----7M------------|--3L---|--3----|
--7M----7M----7M-7M-7M-7M-7M----7M----7M------------|--3L---|--3----|

                             
----------------------------|
----------------------------|
----------------------------|
----------------------------|
--3M----3M-3M-3M-3M-3M-3M---|
--3M----3M-3M-3M-3M-3M-3M---|

                                                     
----------------------------------------------------|
----------------------------------------------------|
----------------------------------------------------|
----------------------------------------------------|
--3M----3M----3M-3M-3M-3M-3M----3M----3M------------|
--3M----3M----3M-3M-3M-3M-3M----3M----3M------------|

                             
----------------------------|
----------------------------|
----------------------------|
----------------------------|
--7M----7M-7M-7M-7M-7M-7M---|
--7M----7M-7M-7M-7M-7M-7M---|

                                                     
----------------------------------------------------|
----------------------------------------------------|
----------------------------------------------------|
----------------------------------------------------|
--7M----7M----7M-7M-7M-7M-7M----7M----7M------------|
--7M----7M----7M-7M-7M-7M-7M----7M----7M------------|

                             
----------------------------|
----------------------------|
----------------------------|
----------------------------|
--3M----3M-3M-3M-3M-3M-3M---|
--3M----3M-3M-3M-3M-3M-3M---|

                                                     
----------------------------------------------------|
----------------------------------------------------|
----------------------------------------------------|
----------------------------------------------------|
--3M----3M----3M-3M-3M-3M-3M----3M----3M------------|
--3M----3M----3M-3M-3M-3M-3M----3M----3M------------|

                             
----------------------------|
----------------------------|
----------------------------|
----------------------------|
--7M----7M-7M-7M-7M-7M-7M---|
--7M----7M-7M-7M-7M-7M-7M---|

                                                     
----------------------------------------------------|
----------------------------------------------------|
----------------------------------------------------|
----------------------------------------------------|
--7M----7M----7M-7M-7M-7M-7M----7M----7M------------|
--7M----7M----7M-7M-7M-7M-7M----7M----7M------------|

                             
----------------------------|
----------------------------|
----------------------------|
----------------------------|
--3M----3M-3M-3M-3M-3M-3M---|
--3M----3M-3M-3M-3M-3M-3M---|

                                                                             
----------------------------------------------------|-------|-------|-------|
----------------------------------------------------|-------|-------|-------|
----------------------------------------------------|-------|-------|-------|
----------------------------------------------------|--3L---|--3----|--6L---|
--3M----3M----3M-3M-3M-3M-3M----3M----3M------------|--3L---|--3----|--7L---|
--3M----3M----3M-3M-3M-3M-3M----3M----3M------------|--3L---|--3----|--6L---|

                                                                          
-------|----------------|----------------|-------|-------|-------|-------|
-------|----------------|----------------|-------|-------|-------|-------|
-------|----------------|----------------|-------|-------|-------|-------|
--6----|--3--------7----|--0--2----------|--3L---|--3----|--6L---|--6----|
--7----|--3--------7----|--0--2----------|--3L---|--3----|--7L---|--7----|
--6----|--3--------7----|--0--2----------|--3L---|--3----|--6L---|--6----|

                                                               
----------------|----------------|----------------------------|
----------------|----------------|----------------------------|
----------------|----------------|----------------------------|
--3--------7----|--0--2----------|----------------------------|
--3--------7----|--0--2----------|--3M-3M-3M-3M-3M-3M-3M-3M---|
--3--------7----|--0--2----------|--3M-3M-3M-3M-3M-3M-3M-3M---|

                                                          
----------------------------|----------------------------|
----------------------------|----------------------------|
----------------------------|----------------------------|
----------------------------|----------------------------|
--3M-3M-3M-3M-3M-3M-3M-3M---|--7M-7M-7M-7M-7M-7M-7M-7M---|
--3M-3M-3M-3M-3M-3M-3M-3M---|--6M-6M-6M-6M-6M-6M-6M-6M---|

                                                          
----------------------------|----------------------------|
----------------------------|----------------------------|
----------------------------|----------------------------|
----------------------------|----------------------------|
--7M-7M-7M-7M-7M-7M-7M-7M---|--3M-3M-3M-3M-3M-3M-7M-7M---|
--6M-6M-6M-6M-6M-6M-6M-6M---|--3M-3M-3M-3M-3M-3M-7M-7M---|

                                                          
----------------------------|----------------------------|
----------------------------|----------------------------|
----------------------------|----------------------------|
----------------------------|----------------------------|
--0M-0M-2M-2M-2M-2M-2M-2M---|--3M-3M-3M-3M-3M-3M-3M-3M---|
--0M-0M-2M-2M-2M-2M-2M-2M---|--3M-3M-3M-3M-3M-3M-3M-3M---|

                                                          
----------------------------|----------------------------|
----------------------------|----------------------------|
----------------------------|----------------------------|
----------------------------|----------------------------|
--3M-3M-3M-3M-3M-3M-3M-3M---|--7M-7M-7M-7M-7M-7M-7M-7M---|
--3M-3M-3M-3M-3M-3M-3M-3M---|--6M-6M-6M-6M-6M-6M-6M-6M---|

                                                          
----------------------------|----------------------------|
----------------------------|----------------------------|
----------------------------|----------------------------|
----------------------------|----------------------------|
--7M-7M-7M-7M-7M-7M-7M-7M---|--3M-3M-3M-3M-3M-3M-7M-7M---|
--6M-6M-6M-6M-6M-6M-6M-6M---|--3M-3M-3M-3M-3M-3M-7M-7M---|

                                             
----------------------------|-------|-------|
----------------------------|-------|-------|
----------------------------|-------|-------|
----------------------------|-------|-------|
--0M-0M-2M-2M-2M-2M-2M-2M---|--2L---|--2----|
--0M-0M-2M-2M-2M-2M-2M-2M---|--6L---|--6----|

                                                     
----------------------------------------------------|
----------------------------------------------------|
----------------------------------------------------|
----------------------------------------------------|
--0M----0M----------------0M-0M-0M-0M-------0M------|
--0M----0M----------------0M-0M-0M-0M-------0M------|

                                                     
----------------------------------------------------|
----------------------------------------------------|
----------------------------------------------------|
----------------------------------------------------|
--------------0M-0M-0M-0M-0M----------0M----0M------|
--------------0M-0M-0M-0M-0M----------0M----0M------|

                                                                             
----------------------------------------------------------------------------|
----------------------------------------------------------------------------|
----------------------------------------------------------------------------|
----------------------------------------------------------------------------|
--0M-------0M-------0M----------------------------------0M----0M----0M------|
--0M-------0M-------0M----------------------------------0M----0M----0M------|

                                                                             
----------------------------------------------------------------------------|
----------------------------------------------------------------------------|
----------------------------------------------------------------------------|
----------------------------------------------------------------------------|
--------------------0M----0M----0M-------------0M-------0M------------------|
--------------------0M----0M----0M-------------0M-------0M------------------|

                                                     
----------------------------------------------------|
----------------------------------------------------|
----------------------------------------------------|
----------------------------------------------------|
--------------------------0M----0M----0M----0M------|
--6--6--6--6L-6-----------0M----0M----0M----0M------|

                             
----------------------------|
----------------------------|
----------------------------|
----------------------------|
--------0M----------0M-0M---|
--------0M----------0M-0M---|

                                                     
----------------------------------------------------|
----------------------------------------------------|
----------------------------------------------------|
----------------------------------------------------|
--0M----0M----------------0M-0M-0M-0M-------0L------|
--0M----0M----------------0M-0M-0M-0M-------0L------|

                                                     
----------------------------------------------------|
----------------------------------------------------|
----------------------------------------------------|
----------------------------------------------------|
--0M----------0M-0M-0M-0M-0M----------0M----0M------|
--0M----------0M-0M-0M-0M-0M----------0M----0M------|

                                                                             
----------------------------------------------------------------------------|
----------------------------------------------------------------------------|
----------------------------------------------------------------------------|
----------------------------------------------------------------------------|
--0M-------0M-------0M----------------------------------0M----0M----0L------|
--0M-------0M-------0M----------------------------------0M----0M----0L------|

                                                                             
----------------------------------------------------------------------------|
----------------------------------------------------------------------------|
----------------------------------------------------------------------------|
----------------------------------------------------------------------------|
--0M----------------0M----0M----0L----0M-------0M-------0M------------------|
--0M----------------0M----0M----0L----0M-------0M-------0M------------------|

                                                     
----------------------------------------------------|
----------------------------------------------------|
----------------------------------------------------|
----------------------------------------------------|
--------------------------0M----0M----0M----0L------|
--6--6--6--6L-6-----------0M----0M----0M----0L------|

                             
----------------------------|
----------------------------|
----------------------------|
----------------------------|
--0M----0M----------0M-0M---|
--0M----0M----------0M-0M---|

                                                     
----------------------------------------------------|
----------------------------------------------------|
----------------------------------------------------|
----------------------------------------------------|
--0M----0M----------------0M-0M-0M-0M-------0M------|
--0M----0M----------------0M-0M-0M-0M-------0M------|

                                                     
----------------------------------------------------|
----------------------------------------------------|
----------------------------------------------------|
----------------------------------------------------|
--------------0M-0M-0M-0M-0M----------0M----0M------|
--------------0M-0M-0M-0M-0M----------0M----0M------|

                                                                             
----------------------------------------------------------------------------|
----------------------------------------------------------------------------|
----------------------------------------------------------------------------|
----------------------------------------------------------------------------|
--0M-------0M-------0M----------------------------------0M----0M----0M------|
--0M-------0M-------0M----------------------------------0M----0M----0M------|

                                                                             
----------------------------------------------------------------------------|
----------------------------------------------------------------------------|
----------------------------------------------------------------------------|
----------------------------------------------------------------------------|
--------------------0M----0M----0M-------------0M-------0M------------------|
--------------------0M----0M----0M-------------0M-------0M------------------|

                                                     
----------------------------------------------------|
----------------------------------------------------|
----------------------------------------------------|
----------------------------------------------------|
--------------------------0M----0M----0M----0M------|
--6--6--6--6L-6-----------0M----0M----0M----0M------|

                             
----------------------------|
----------------------------|
----------------------------|
----------------------------|
--------0M----------0M-0M---|
--------0M----------0M-0M---|

                                                     
----------------------------------------------------|
----------------------------------------------------|
----------------------------------------------------|
----------------------------------------------------|
--0M----0M----------------0M-0M-0M-0M-------0L------|
--0M----0M----------------0M-0M-0M-0M-------0L------|

                                                     
----------------------------------------------------|
----------------------------------------------------|
----------------------------------------------------|
----------------------------------------------------|
--0M----------0M-0M-0M-0M-0M----------0M----0M------|
--0M----------0M-0M-0M-0M-0M----------0M----0M------|

                                                                             
----------------------------------------------------------------------------|
----------------------------------------------------------------------------|
----------------------------------------------------------------------------|
----------------------------------------------------------------------------|
--0M-------0M-------0M----------------------------------0M----0M----0L------|
--0M-------0M-------0M----------------------------------0M----0M----0L------|

                                                                             
----------------------------------------------------------------------------|
----------------------------------------------------------------------------|
----------------------------------------------------------------------------|
----------------------------------------------------------------------------|
--0M----------------0M----0M----0L----0M-------0M-------0M------------------|
--0M----------------0M----0M----0L----0M-------0M-------0M------------------|

                                                     
----------------------------------------------------|
----------------------------------------------------|
----------------------------------------------------|
----------------------------------------------------|
--------------------------0M----0M----0M----0L------|
--6--6--6--6L-6-----------0M----0M----0M----0L------|

                               <
----------------------------|-------|-------|-------|-------|
----------------------------|-------|-------|-------|-------|
----------------------------|-------|-------|-------|-------|
----------------------------|--7L---|--7L---|--7L---|--7----|
--0M----0M----------0M-0M---|--7L---|--7L---|--7L---|--7----|
--0M----0M----------0M-0M---|--7L---|--7L---|--7L---|--7----|


----------------------------|
----------------------------|
----------------------------|
----------------------------|
--7M----7M-7M-7M-7M-7M-7M---|
--7M----7M-7M-7M-7M-7M-7M---|


----------------------------------------------------|-------|-------|
----------------------------------------------------|-------|-------|
----------------------------------------------------|-------|-------|
----------------------------------------------------|--3L---|--3----|
--7M----7M----7M-7M-7M-7M-7M----7M----7M------------|--3L---|--3----|
--7M----7M----7M-7M-7M-7M-7M----7M----7M------------|--3L---|--3----|


----------------------------|
----------------------------|
----------------------------|
----------------------------|
--3M----3M-3M-3M-3M-3M-3M---|
--3M----3M-3M-3M-3M-3M-3M---|


----------------------------------------------------|-------|-------|
----------------------------------------------------|-------|-------|
----------------------------------------------------|-------|-------|
----------------------------------------------------|--7L---|--7----|
--3M----3M----3M-3M-3M-3M-3M----3M----3M------------|--7L---|--7----|
--3M----3M----3M-3M-3M-3M-3M----3M----3M------------|--7L---|--7----|


----------------------------|
----------------------------|
----------------------------|
----------------------------|
--7M----7M-7M-7M-7M-7M-7M---|
--7M----7M-7M-7M-7M-7M-7M---|


----------------------------------------------------|-------|-------|
----------------------------------------------------|-------|-------|
----------------------------------------------------|-------|-------|
----------------------------------------------------|--3L---|--3----|
--7M----7M----7M-7M-7M-7M-7M----7M----7M------------|--3L---|--3----|
--7M----7M----7M-7M-7M-7M-7M----7M----7M------------|--3L---|--3----|


----------------------------|
----------------------------|
----------------------------|
----------------------------|
--3M----3M-3M-3M-3M-3M-3M---|
--3M----3M-3M-3M-3M-3M-3M---|


----------------------------------------------------|-------|-------|
----------------------------------------------------|-------|-------|
----------------------------------------------------|--10L--|--10---|
----------------------------------------------------|--7L---|--7----|
--3M----3M----3M-3M-3M-3M-3M----3M----3M------------|--7L---|--7----|
--3M----3M----3M-3M-3M-3M-3M----3M----3M------------|-------|-------|


----------------------------------------------------|
----------------------------------------------------|
----------------------------------------------------|
----------------------------------------------------|
----------------------------------------------------|
--7--7--7--7L-7-----------7--7--7--7L-7-------------|


----------------------------------------------------|
----------------------------------------------------|
----------------------------------------------------|
----------------------------------------------------|
----------------------------------------------------|
--6--6--6--6L-6-----------6--6--6--6L-6-------------|


----------------------------------------------------|
----------------------------------------------------|
----------------------------------------------------|
----------------------------------------------------|
----------------------------------------------------|
--3--3--3--3L-3-----------3--3--3--3L-3-------------|


----------------------------------------------------|
----------------------------------------------------|
----------------------------------------------------|
----------------------------------------------------|
----------------------------------------------------|
--6--6--6--6L-6-----------6--6--6--6L-6-------------|


----------------------------------------------------|
----------------------------------------------------|
----------------------------------------------------|
----------------------------------------------------|
----------------------------------------------------|
--7--7--7--7L-7-----------7--7--7--7L-7-------------|


----------------------------------------------------|
----------------------------------------------------|
----------------------------------------------------|
----------------------------------------------------|
----------------------------------------------------|
--6--6--6--6L-6-----------6--6--6--6L-6-------------|


----------------------------------------------------|
----------------------------------------------------|
----------------------------------------------------|
----------------------------------------------------|
----------------------------------------------------|
--3--3--3--3L-3-----------3--3--3--3L-3-------------|


----------------------------------------------------|
----------------------------------------------------|
----------------------------------------------------|
----------------------------------------------------|
----------------------------------------------------|
--6--6--6--6L-6-----------6--6--6--6L-6-------------|


----------------------------------------------------|
----------------------------------------------------|
----------------------------------------------------|
----------------------------------------------------|
----------------------------------------------------|
--7--7--7--7--7--7--7--7--7--7--7--7--7--7--7--7----|


----------------------------------------------------|
----------------------------------------------------|
----------------------------------------------------|
----------------------------------------------------|
----------------------------------------------------|
--6--6--6--6--6--6--6--6--6--6--6--6--6--6--6--6----|


----------------------------------------------------|
----------------------------------------------------|
----------------------------------------------------|
----------------------------------------------------|
----------------------------------------------------|
--3--3--3--3--3--3--3--3--3--3--3--3--3--3--3--3----|


----------------------------------------------------|-------|-------|
----------------------------------------------------|-------|-------|
----------------------------------------------------|-------|-------|
----------------------------------------------------|-------|-------|
----------------------------------------------------|--3L---|--3----|
--6--6--6--6--6--6--6--6--6--6--6--6--6--6--6--6----|--6L---|--6----|


----------------------------|----------------------------|
----------------------------|----------------------------|
----------------------------|----------------------------|
----------------------------|----------------------------|
--0M-0M-0M-0M-0M-0M-0M-0M---|--0M-0M-0M-0M-0M-0M-0M-0M---|
--0M-0M-0M-0M-0M-0M-0M-0M---|--0M-0M-0M-0M-0M-0M-0M-0M---|


----------------------------|----------------------------|
----------------------------|----------------------------|
----------------------------|----------------------------|
----------------------------|----------------------------|
--3M-3M-3M-3M-3M-3M-3M-3M---|--3M-3M-3M-3M-3M-3M-3M-3M---|
--3M-3M-3M-3M-3M-3M-3M-3M---|--3M-3M-3M-3M-3M-3M-3M-3M---|


----------------------------|----------------------------|
----------------------------|----------------------------|
----------------------------|----------------------------|
----------------------------|----------------------------|
--6M-6M-6M-6M-6M-6M-6M-6M---|--2M-2M-2M-2M-2M-2M-2M-2M---|
--6M-6M-6M-6M-6M-6M-6M-6M---|--2M-2M-2M-2M-2M-2M-2M-2M---|


----------------------------|----------------------------|
----------------------------|----------------------------|
----------------------------|----------------------------|
----------------------------|----------------------------|
--0M-0M-0M-0M-0M-0M-0M-0M---|--0M-0M-0M-0M-0M-0M-0M-0M---|
--0M-0M-0M-0M-0M-0M-0M-0M---|--0M-0M-0M-0M-0M-0M-0M-0M---|


----------------------------|----------------------------|
----------------------------|----------------------------|
----------------------------|----------------------------|
----------------------------|----------------------------|
--3M-3M-3M-3M-3M-3M-3M-3M---|--3M-3M-3M-3M-3M-3M-3M-3M---|
--3M-3M-3M-3M-3M-3M-3M-3M---|--3M-3M-3M-3M-3M-3M-3M-3M---|


----------------------------|----------------------------|-------|-------|
----------------------------|----------------------------|-------|-------|
----------------------------|----------------------------|-------|-------|
----------------------------|----------------------------|--2L---|--2----|
--6M-6M-6M-6M-6M-6M-6M-6M---|--2M-2M-2M-2M-2M-2M-2M-2M---|--2L---|--2----|
--6M-6M-6M-6M-6M-6M-6M-6M---|--2M-2M-2M-2M-2M-2M-2M-2M---|--2L---|--2----|


-------|-------|-------|-------|----------------|----------------|-------|
-------|-------|-------|-------|----------------|----------------|-------|
-------|-------|-------|-------|----------------|----------------|-------|
--3L---|--3----|--6L---|--6----|--3--------7----|--0--2----------|--3L---|
--3L---|--3----|--7L---|--7----|--3--------7----|--0--2----------|--3L---|
--3L---|--3----|--6L---|--6----|--3--------7----|--0--2----------|--3L---|


-------|-------|-------|----------------|----------------|
-------|-------|-------|----------------|----------------|
-------|-------|-------|----------------|----------------|
--3----|--6L---|--6----|--3--------7----|--0--2----------|
--3----|--7L---|--7----|--3--------7----|--0--2----------|
--3----|--6L---|--6----|--3--------7----|--0--2----------|


----------------------------|----------------------------|
----------------------------|----------------------------|
----------------------------|----------------------------|
----------------------------|----------------------------|
--3M-3M-3M-3M-3M-3M-3M-3M---|--3M-3M-3M-3M-3M-3M-3M-3M---|
--3M-3M-3M-3M-3M-3M-3M-3M---|--3M-3M-3M-3M-3M-3M-3M-3M---|


----------------------------|----------------------------|
----------------------------|----------------------------|
----------------------------|----------------------------|
----------------------------|----------------------------|
--7M-7M-7M-7M-7M-7M-7M-7M---|--7M-7M-7M-7M-7M-7M-7M-7M---|
--6M-6M-6M-6M-6M-6M-6M-6M---|--6M-6M-6M-6M-6M-6M-6M-6M---|


----------------------------|----------------------------|
----------------------------|----------------------------|
----------------------------|----------------------------|
----------------------------|----------------------------|
--3M-3M-3M-3M-3M-3M-7M-7M---|--0M-0M-2M-2M-2M-2M-2M-2M---|
--3M-3M-3M-3M-3M-3M-7M-7M---|--0M-0M-2M-2M-2M-2M-2M-2M---|


----------------------------|----------------------------|
----------------------------|----------------------------|
----------------------------|----------------------------|
----------------------------|----------------------------|
--3M-3M-3M-3M-3M-3M-3M-3M---|--3M-3M-3M-3M-3M-3M-3M-3M---|
--3M-3M-3M-3M-3M-3M-3M-3M---|--3M-3M-3M-3M-3M-3M-3M-3M---|


----------------------------|----------------------------|
----------------------------|----------------------------|
----------------------------|----------------------------|
----------------------------|----------------------------|
--7M-7M-7M-7M-7M-7M-7M-7M---|--7M-7M-7M-7M-7M-7M-7M-7M---|
--6M-6M-6M-6M-6M-6M-6M-6M---|--6M-6M-6M-6M-6M-6M-6M-6M---|


----------------------------|----------------------------|-------||
----------------------------|----------------------------|-------||
----------------------------|----------------------------|-------||
----------------------------|----------------------------|--2----||
--3M-3M-3M-3M-3M-3M-7M-7M---|--0M-0M-2M-2M-2M-2M-2M-2M---|--2----||
--3M-3M-3M-3M-3M-3M-7M-7M---|--0M-0M-2M-2M-2M-2M-2M-2M---|--2----||

___________________________________________
__________________________________________________
___________________________________________________________
________________________________________________________________
Extra/Harmony Guitar
                                                                     
E |-------|-------|-------|-------|-------|-------|-------|-------|-------|
B |-------|-------|-------|-------|-------|-------|-------|-------|-------|
G |-------|-------|-------|-------|-------|-------|-------|-------|-------|
D |-------|-------|-------|-------|-------|-------|-------|-------|-------|
A |-------|-------|-------|-------|-------|-------|-------|-------|-------|
D |-------|-------|-------|-------|-------|-------|-------|-------|-------|

                                                                        
-------|-------|-------|-------|-------|-------|-------|-------|-------|
-------|-------|-------|-------|-------|-------|-------|-------|-------|
-------|-------|-------|-------|-------|-------|-------|-------|-------|
-------|-------|-------|-------|-------|-------|-------|-------|-------|
-------|-------|-------|-------|-------|-------|-------|-------|-------|
-------|-------|-------|-------|-------|-------|-------|-------|-------|

                                                     
----------------------------------------------------|
----------------------------------------------------|
--------------------12M12M14M14M12M12M--------------|
--10M10M12M12M14M14M------------------14M14M12M12M--|
----------------------------------------------------|
----------------------------------------------------|

                                                     
----------------------------------------------------|
----------------------------------------------------|
--------14M14M12M12M10M10M--------------------------|
--10M10M------------------14M14M12M12M10M10M9M-9M---|
----------------------------------------------------|
----------------------------------------------------|

                                                     
--8M-8M-10M10M12M12M15M15M17M17M15M15M--------------|
--------------------------------------17M17M15M15M--|
----------------------------------------------------|
----------------------------------------------------|
----------------------------------------------------|
----------------------------------------------------|

                                                     
--------17M17M15M15M13M13M12M12M10M10M8M-8M-7M-7M---|
--13M13M--------------------------------------------|
----------------------------------------------------|
----------------------------------------------------|
----------------------------------------------------|
----------------------------------------------------|

                                                     
----------------------------------------------------|
----------------------------------------------------|
--------------5M-5M-7M-7M-9M-9M-7M-7M-5M-5M---------|
--7M-7M-9M-9M-------------------------------9M-9M---|
----------------------------------------------------|
----------------------------------------------------|

                                                                  =  =     
----------------------------------------------------|----------|----------|
--10M10M12M12M13M13M15M15M17M17M15M15M13M13M12M12M--|----------|----------|
----------------------------------------------------|--12s21---|--19-16---|
----------------------------------------------------|----------|----------|
----------------------------------------------------|----------|----------|
----------------------------------------------------|----------|----------|

                                                                          
-------|-------|----------------------------|----------------------------|
-------|-------|----------------------------|----------------------------|
-------|-------|----------------------------|----------------------------|
-------|-------|----------------------------|----------------------------|
-------|-------|----------------------------|----------------------------|
-------|-------|----------------------------|----------------------------|

                                                                          
-------|-------|----------------------------|----------------------------|
-------|-------|----------------------------|----------------------------|
-------|-------|----------------------------|----------------------------|
-------|-------|----------------------------|----------------------------|
-------|-------|----------------------------|----------------------------|
-------|-------|----------------------------|----------------------------|

                                                                                
-------|-------|-------|-------|-------|-------|-------|-------|-------|-------|
-------|-------|-------|-------|-------|-------|-------|-------|-------|-------|
-------|-------|-------|-------|-------|-------|-------|-------|-------|-------|
-------|-------|-------|-------|-------|-------|-------|-------|-------|-------|
-------|-------|-------|-------|-------|-------|-------|-------|-------|-------|
-------|-------|-------|-------|-------|-------|-------|-------|-------|-------|

                           =       =  =       =       =  =  =       =     
-------|-------|----------------|----------|-------|-------------|-------|
-------|-------|--8s----17-15---|--15------|--13---|--17-15-13---|--12---|
-------|-------|----------------|-----16---|-------|-------------|-------|
-------|-------|----------------|----------|-------|-------------|-------|
-------|-------|----------------|----------|-------|-------------|-------|
-------|-------|----------------|----------|-------|-------------|-------|

  =  =  =       =       =  =  =                                  
-------------|-------|-------------|--------------------15s20s--|
--18-17-15---|--17---|--20-18-17---|-----------------17---------|
-------------|-------|-------------|-----------16h17------------|
-------------|-------|-------------|--------17------------------|
-------------|-------|-------------|--15h19---------------------|
-------------|-------|-------------|----------------------------|

     =  =  =                                                             
--15------------|-------|-------|-------|-------|-------|-------|-------|
-----17-18-20---|--20L--|--20---|-------|-------|-------|-------|-------|
----------------|-------|-------|-------|-------|-------|-------|-------|
----------------|-------|-------|-------|-------|-------|-------|-------|
----------------|-------|-------|-------|-------|-------|-------|-------|
----------------|-------|-------|-------|-------|-------|-------|-------|

                                                                                
-------|-------|-------|-------|-------|-------|-------|-------|-------|-------|
-------|-------|-------|-------|-------|-------|-------|-------|-------|-------|
-------|-------|-------|-------|-------|-------|-------|-------|-------|-------|
-------|-------|-------|-------|-------|-------|-------|-------|-------|-------|
-------|-------|-------|-------|-------|-------|-------|-------|-------|-------|
-------|-------|-------|-------|-------|-------|-------|-------|-------|-------|

                                                                                
-------|-------|-------|-------|-------|-------|-------|-------|-------|-------|
-------|-------|-------|-------|-------|-------|-------|-------|-------|-------|
-------|-------|-------|-------|-------|-------|-------|-------|-------|-------|
-------|-------|-------|-------|-------|-------|-------|-------|-------|-------|
-------|-------|-------|-------|-------|-------|-------|-------|-------|-------|
-------|-------|-------|-------|-------|-------|-------|-------|-------|-------|

                                                                                
-------|-------|-------|-------|-------|-------|-------|-------|-------|-------|
-------|-------|-------|-------|-------|-------|-------|-------|-------|-------|
-------|-------|-------|-------|-------|-------|-------|-------|-------|-------|
-------|-------|-------|-------|-------|-------|-------|-------|-------|-------|
-------|-------|-------|-------|-------|-------|-------|-------|-------|-------|
-------|-------|-------|-------|-------|-------|-------|-------|-------|-------|

                                                             
-------|----------------------------------------------------|
-------|----------------------------------------------------|
-------|--------------------12-12-14-14-12-12---------------|
-------|--10-10-12-12-14-14-------------------14-14-12-12---|
-------|----------------------------------------------------|
-------|----------------------------------------------------|

                                                     
----------------------------------------------------|
----------------------------------------------------|
--------14-14-12-12-10-10---------------------------|
--10-10-------------------14-14-12-12-10-10-9--9----|
----------------------------------------------------|
----------------------------------------------------|

                                                     
--8--8--10-10-12-12-15-15-17-17-15-15---------------|
--------------------------------------17-17-15-15---|
----------------------------------------------------|
----------------------------------------------------|
----------------------------------------------------|
----------------------------------------------------|

                                                     
--------17-17-15-15-13-13-12-12-10-10-8--8--7--7----|
--13-13---------------------------------------------|
----------------------------------------------------|
----------------------------------------------------|
----------------------------------------------------|
----------------------------------------------------|

                                                     
----------------------------------------------------|
----------------------------------------------------|
--------------5--5--7--7--9--9--7--7--5--5----------|
--7--7--9--9--------------------------------9--9----|
----------------------------------------------------|
----------------------------------------------------|

                                                                  =  =     
----------------------------------------------------|----------|----------|
--10-10-12-12-13-13-15-15-17-17-15-15-13-13-12-12---|----------|----------|
----------------------------------------------------|--12s21---|--19-16---|
----------------------------------------------------|----------|----------|
----------------------------------------------------|----------|----------|
----------------------------------------------------|----------|----------|

                                                                                
-------|-------|-------|-------|-------|-------|-------|-------|-------|-------|
-------|-------|-------|-------|-------|-------|-------|-------|-------|-------|
-------|-------|-------|-------|-------|-------|-------|-------|-------|-------|
-------|-------|-------|-------|-------|-------|-------|-------|-------|-------|
-------|-------|-------|-------|-------|-------|-------|-------|-------|-------|
-------|-------|-------|-------|-------|-------|-------|-------|-------|-------|

                                                                                
-------|-------|-------|-------|-------|-------|-------|-------|-------|-------|
-------|-------|-------|-------|-------|-------|-------|-------|-------|-------|
-------|-------|-------|-------|-------|-------|-------|-------|-------|-------|
-------|-------|-------|-------|-------|-------|-------|-------|-------|-------|
-------|-------|-------|-------|-------|-------|-------|-------|-------|-------|
-------|-------|-------|-------|-------|-------|-------|-------|-------|-------|

                  =       =       =       =       =       =  =             
-------|-------|--12---|--13---|--17---|--16---|--17---|--16-13---|--12L--|
-------|-------|-------|-------|-------|-------|-------|----------|-------|
-------|-------|-------|-------|-------|-------|-------|----------|-------|
-------|-------|-------|-------|-------|-------|-------|----------|-------|
-------|-------|-------|-------|-------|-------|-------|----------|-------|
-------|-------|-------|-------|-------|-------|-------|----------|-------|

                                                                                
--12---|-------|-------|-------|-------|-------|-------|-------|-------|-------|
-------|-------|-------|-------|-------|-------|-------|-------|-------|-------|
-------|-------|-------|-------|-------|-------|-------|-------|-------|-------|
-------|-------|-------|-------|-------|-------|-------|-------|-------|-------|
-------|-------|-------|-------|-------|-------|-------|-------|-------|-------|
-------|-------|-------|-------|-------|-------|-------|-------|-------|-------|

                                   =       =  =       =       =  =  =     
-------|-------|-------|----------------|----------|-------|-------------|
-------|-------|-------|--8s----17-15---|--15------|--13---|--17-15-13---|
-------|-------|-------|----------------|-----16---|-------|-------------|
-------|-------|-------|----------------|----------|-------|-------------|
-------|-------|-------|----------------|----------|-------|-------------|
-------|-------|-------|----------------|----------|-------|-------------|

  =       =  =  =       =       =  =  =                                  
-------|-------------|-------|-------------|--------------------15s20s--|
--12---|--18-17-15---|--17---|--20-18-17---|-----------------17---------|
-------|-------------|-------|-------------|-----------16h17------------|
-------|-------------|-------|-------------|--------17------------------|
-------|-------------|-------|-------------|--15h19---------------------|
-------|-------------|-------|-------------|----------------------------|

     =  =  =
--15------------|-------|-------|-------||
-----17-18-20---|--20L--|--20---|-------||
----------------|-------|-------|-------||
----------------|-------|-------|-------||
----------------|-------|-------|-------||
----------------|-------|-------|-------||

Добавлено: 17.10.2015
Другие материалы по этой песне:
  • Аккорды и текст

Страница создана 17.10.2015
http://primanota.ru/misc-unsigned-bands/john-t-relentless-chords.htm
Привет, Гость.
Предлагаем пройти революционный курс по гитаре.
Подарок от PrimaNota.Ru, забирай!