PrimaNota.ru - самый крупный в мире бесплатный архив песенных текстов, аккордов, табулатур и нот


Misc Unsigned Bands - Homophobic Fecalpheliac - Shitstorm - таба

Регистрация Запомнить меня
Войти через:  Facebook Google Twitter Vk Yandex Mail.ru

Misc Unsigned Bands - Homophobic Fecalpheliac - Shitstorm - таба

Печатать
Просмотров: 99
-------------------------------------------------------------------------------
                         Shitstorm - Homophobic Fecalpheliac
-------------------------------------------------------------------------------
Tabbed by: Homophobic Fecalpheliac
E-mail: homophobicfecalpheliac@gmail.com

Tuning: Drop A

PM = Palm Mute
PH = Pinch Harmonic
\ = Slide Down
x = Slide down strings with pick or thumbs finger nail on 3rd fret harmonics

Intro
     PM------|    PM     PM------|    PM------------|    PM     PM------|    PM---|
b |------|-----x------x------------x------------------x------x------------x---------|
f#|------|-----x------x------------x------------------x------x------------x---------|
d |------|-----x------x------------x------------------x------x------------x---------|
A |------|-----x------x------------x------------------x------x------------x---------|
E |---1--|--0--x---0--x---0--1--0--x---0--3--2--1--0--x---0--x---0--1--0--x---0--1--|
A |---1--|--0--x---0--x---0--1--0--x---0--3--2--1--0--x---0--x---0--1--0--x---0--1--|

Verse 1
    PM     PM     PM-----|     PM-----------|     PM     PM-----|     PM-----| PH 
b |---------------------------------------------------------------------------------|
f#|---------------------------------------------------------------------------------|
d |---------------------------------------------------------------------------------|
A |-----1------1------------1------------------1------1------------1----------------|
E |--0--0---0--0---0--1--0--0---0--3--2--1--0--0---0--0---0--1--0--0---0--3--2--3---|
A |--0------0------0--1--0------0--4--3--2--0------0------0--1--0------0--4--3------|x2

Drum Fill
                                                                   PM------------------|
b |---------------------------------------------------------------------------------------|
f#|---------------------------------------------------------------------------------------|
d |---------------------------------------------------------------------------------------|
A |---------------------------------------------------------------------------------------|
E |--0~~~~~~~~--------------------------0~~~~~~~~-------------------0--0--0--0--0--0--0---|
A |--0~~~~~~~~--------------------------0~~~~~~~~-------------------0--0--0--0--0--0--0---|

Riff A
    PM      PM--------------|      PM---|     PM      PM--------------|      PM 
b |-----------------------------------------------------------------------------------------|
f#|-----------------------------------------------------------------------------------------|
d |-----------------------------------------------------------------------------------------|
A |-----7\6--------------------6\5----------------7\6--------------------6\5-----5\4--3\2---|
E |--0--5\4--0--6--5--4--3--0--4\3--5--4--3\2--0--5\4--0--6--5--4--3--0--4\3--0--5\4--3\2---|
A |--0-------0--6--5--4--3--0-------5--4--3\2--0-------0--6--5--4--3--0-------0-------------|x2

Riff B
    PM------|     PM---|     PM----------------|  PM-----|      PM---|     PM--------------| PH
b |----------------------------------------------------------------------------------------------|
f#|----------------------------------------------------------------------------------------------|
d |----------------------------------------------------------------------------------------------|
A |----------------------------------------------------------------------------------------------|
E |-------------------------------------------------------------------------------------------3--|
A |--0--3--2--1~~--3--2--1~~--3--2--1--4--3--2--1--0--3--2--1~~--3--2--1~~--3--2--1--4--3--2-----|

    PM------|     PM---|     PM----------------|  PM-----|      PM---|     PM-----------|
b |-------------------------------------------------------------------------------------------|
f#|-------------------------------------------------------------------------------------------|
d |-------------------------------------------------------------------------------------------|
A |-------------------------------------------------------------------------------------------|
E |----------------------------------------------------------------------------------------2--|
A |--0--3--2--1~~--3--2--1~~--3--2--1--4--3--2--1--0--3--2--1~~--3--2--1~~--3--2--1--4--3--2--|

Riff C
    PM------|     PM---|     PM----------------|  PM-----|      PM---|     PM-----------|
b |----------------------------------------------------------------------------------------------|
f#|----------------------------------------------------------------------------------------------|
d |----------------------------------------------------------------------------------------------|
A |----------------------------------------------------------------------------------------------|
E |--0--3--2--1~~--3--2--1~~--3--2--1--4--3--2--1--0--3--2--1~~--3--2--1~~--3--2--1--4--3--2--1--|
A |--0--3--2--1~~--3--2--1~~--3--2--1--4--3--2--1--0--3--2--1~~--3--2--1~~--3--2--1--4--3--2--1--|

    PM------|     PM---|     PM----------------|  PM-----|      PM---|     PM----------------|
b |----------------------------------------------------------------------------------------------|
f#|----------------------------------------------------------------------------------------------|
d |----------------------------------------------------------------------------------------------|
A |----------------------------------------------------------------------------------------------|
E |--0--3--2--1~~--3--2--1~~--3--2--1--4--3--2--1--0--3--2--1~~--3--2--1~~--3--2--1--0-0---0-0---|
A |--0--3--2--1~~--3--2--1~~--3--2--1--4--3--2--1--0--3--2--1~~--3--2--1~~--3--2--1--1-1---1-1---|

Next Riff
                                                             PM-----------------|
b |--------------------------------------------------------------------------------|
f#|--------------------------------------------------------------------------------|
d |--------------------------------------------------------------------------------|
A |--------------------------------------------------------------------------------|
E |-----------------------------------------------------------3--2--1--4--3--2--1--|
A |--0--3--2--1~~--3--2--1------------0--3--2--1~~--3--2--1---3--2--1--4--3--2--1--|

                                                            PM---------------------|
b |-----------------------------------------------------------------------------------|
f#|-----------------------------------------------------------------------------------|
d |-----------------------------------------------------------------------------------|
A |-----------------------------------------------------------------------------------|
E |-----------------------------------------------------------3--2--1--0-0-0---0-0-0--|
A |--0--3--2--1~~--3--2--1------------0--3--2--1~~--3--2--1---3--2--1--1-1-1---1-1-1--|

Next Riff
    PM-------------------------------------------------------------------------------------------------------|
b |------------------------------------------------------------------------------------------------------------|
f#|------------------------------------------------------------------------------------------------------------|
d |------------------------------------------------------------------------------------------------------------|
A |------------------------------------------------------------------------------------------------------------|
E |--0-0-0-0----0-0----0-0-0-0----0-0--------0-0-0-0----0-0----0-0----0-0----0-0-0-0----0-0----0-0-0-0----0-0--|
A |--1-1-1-1----1-1----1-1-1-1----1-1--------1-1-1-1----1-1----1-1----1-1----1-1-1-1----1-1----1-1-1-1----1-1--|

    PM    PM    PM--------|
b |-----x-----x--------------|       -----------------------------------------------|
f#|-----x-----x--------------|       -----------------------------------------------|
d |-----x-----x--------------|       -----------------Drum Fill---------------------|
A |-----x-----x--------------|       -----------------------------------------------|
E |--0--x--0--x--0--3--2--1--|       -----------------------------------------------|
A |--0--x--0--x--0--4--3--2--|x2     -----------------------------------------------|

Yee Part
    PM-------------------------------------------------------------------------------------------------------|
b |------------------------------------------------------------------------------------------------------------|
f#|------------------------------------------------------------------------------------------------------------|
d |------------------------------------------------------------------------------------------------------------|
A |------------------------------------------------------------------------------------------------------------|
E |--0-0-0-0----0-0----0-0-0-0----0-0--------0-0-0-0----0-0----0-0----0-0----0-0-0-0----0-0----0-0-0-0----0-0--|
A |--1-1-1-1----1-1----1-1-1-1----1-1--------1-1-1-1----1-1----1-1----1-1----1-1-1-1----1-1----1-1-1-1----1-1--|


b |-------------------------|
f#|-------------------------|
d |-------------------------|
A |-------------------------|
E |--0-0-0-0----0--3--2--1--|
A |--1-1-1-1----0--4--3--2--|x2

Intro Reprise
    PM     PM     PM------|    PM------------|    PM     PM------|    PM----|   PH 
b |-----x------x------------x------------------x------x------------x---------------|
f#|-----x------x------------x------------------x------x------------x---------------|
d |-----x------x------------x------------------x------x------------x---------------|
A |-----x------x------------x------------------x------x------------x---------------|
E |--0--x---0--x---0--1--0--x---0--3--2--1--0--x---0--x---0--1--0--x---0--3--2--3--|
A |--0--x---0--x---0--1--0--x---0--3--2--1--0--x---0--x---0--1--0--x---0--3--2-----|

    PM     PM     PM------|    PM------------|    PM     PM------|    PM----|   PH  
b |-----x------x------------x------------------x------x------------x------------------|
f#|-----x------x------------x------------------x------x------------x------------------|
d |-----x------x------------x------------------x------x------------x------------------|
A |-----x------x------------x------------------x------x------------x------------------|
E |--0--x---0--x---0--1--0--x---0--3--2--1--0--x---0--x---0--1--0--x---0--3--2--3-----|
A |--0--x---0--x---0--1--0--x---0--3--2--1--0--x---0--x---0--1--0--x---0--3--2-----0--|

BREAKDOWN
    PM---------------------------------------------------------|  PH
b |-------------------------------------------------------------------|
f#|-------------------------------------------------------------------|
d |-------------------------------------------------------------------|
A |-------------------------------------------------------------------|
E |--0-0------------0-0---0---0-0------0-0------------0-0---0---0--3--|
A |--1-1------------1-1---1---1-1------1-1------------1-1---1---1-----|

    PM-------------------------------------------------------------|
b |-------------------------------------------------------------------|
f#|-------------------------------------------------------------------|
d |-------------------------------------------------------------------|
A |-------------------------------------------------------------------|
E |--0-0------------0-0---0---0-0------0-0------------0-0---0---0--0--|
A |--1-1------------1-1---1---1-1------1-1------------1-1---1---1--1--|


Добавлено: 17.10.2015
Другие материалы по этой песне:
  • Аккорды и текст

Страница создана 17.10.2015
http://primanota.ru/misc-unsigned-bands/homophobic-fecalpheliac-shitstorm-chords.htm
Привет, Гость.
Предлагаем пройти революционный курс по гитаре.
Подарок от PrimaNota.Ru, забирай!