PrimaNota.ru - самый крупный в мире бесплатный архив песенных текстов, аккордов, табулатур и нот


Misc Unsigned Bands - Jeremy Sweet And Ian Nickus - Rise Power - таба

Регистрация Запомнить меня
Войти через:  Facebook Google Twitter Vk Yandex Mail.ru

Misc Unsigned Bands - Jeremy Sweet And Ian Nickus - Rise Power - таба

Печатать
Просмотров: 82
-------------------------------------------------------------------------------
                             Rise, Power! - Jeremy Sweet & Ian Nickus
-------------------------------------------------------------------------------
Tabbed by:TheDankTank
E-mail: jonanderson1996@gmail.com

Tuning: Standard (EADGBe)

Main Riff
e|---------------------------------------------------------------------------|
B|-----------3---------------------------------------------------------------|
G|-------2---2---2-------2-------2-------------------------------------------|
D|---5---2---0---2---5---2-------2-------------------------------------------|
A|---3---0-------0---3---0---5---0-------------------------------------------|
E|---------------------------3-----------------------------------------------|

Solo
e|-5p2p0-5p2p0-5p2p0-5p2p0-7p5p0-7p5p0-7p5p0-7p5p0-9p7p0-9p7p0-9p7p0-9p7p0---|
B|---------------------------------------------------------------------------|
G|---------------------------------------------------------------------------|
D|---------------------------------------------------------------------------|
A|---------------------------------------------------------------------------|
E|---------------------------------------------------------------------------|

e|-12p9p0-12p9p0-11p9p0-11p9p0-----------------------------------------------|
B|---------------------------------------------------------------------------|
G|---------------------------------------------------------------------------|
D|---------------------------------------------------------------------------|
A|---------------------------------------------------------------------------|
E|---------------------------------------------------------------------------|


************************************

| /   slide up
| \   slide down
| h   hammer-on
| p   pull-off
| ~   vibrato
| +   harmonic
| x   Mute note
| b   Bend
| pb  Pre-bend
| br  Bend release
| pbr Pre-bend release
| brb Bend release bend

************************************
Добавлено: 17.10.2015
Другие материалы по этой песне:
  • Аккорды и текст

Страница создана 17.10.2015
http://primanota.ru/misc-unsigned-bands/jeremy-sweet-and-ian-nickus-rise-power-chords.htm
Привет, Гость.
Предлагаем пройти революционный курс по гитаре.
Подарок от PrimaNota.Ru, забирай!