PrimaNota.ru - самый крупный в мире бесплатный архив песенных текстов, аккордов, табулатур и нот


Misc Unsigned Bands - The Greyhounds - Unexpected Love - таба

Регистрация Запомнить меня
Войти через:  Facebook Google Twitter Vk Yandex Mail.ru

Misc Unsigned Bands - The Greyhounds - Unexpected Love - таба

Печатать
Просмотров: 70
Уроки эстрадного вокала в Санкт-Петербурге
-------------------------------------------------------------------------------
                              Unexpected love- The Greyhounds
-------------------------------------------------------------------------------
Tabbed by:
E-mail:

Tuning:
     A6          Bm7          E7             E
e|---------------------------------------------------------------------------|  1
B|-----------------------------------2---------------------------------------|
G|---------------2-4-2---------2-4---------4-2-4-----------------------------|
D|--------2--4p-----------4-4------------------------------------------------|
A|-2 / 4---------------------------------------------------------------------|
E|---------------------------------------------------------------------------|
     A6          Bm7          E7             E
e|-------------------------------------2-------------------------------------|  2
B|----------------2-5-2-----------2-5------5-2-------------------------------|
G|---------2-4p------------4-4--------------------4--------------------------|
D|--2-/-4--------------------------------------------------------------------|
A|---------------------------------------------------------------------------|
E|---------------------------------------------------------------------------|
     Bm        E              Bm             E
e|--5-----7--7--7-------7--7--7--7--------12--12--12--12---------------------|  3 - 4
B|--5---7--7--7---------5--5--5--5--------12--12--12--12---------------------|
G|---------------------------------------------------------------------------|
D|---------------------------------------------------------------------------|
A|---------------------------------------------------------------------------|
E|---------------------------------------------------------------------------|
     A6          Bm7          E7             E
e|--------------------9-12p----------------9-12-9----------------------------|  5
B|----------10-12p-----------12-----12-12------------12-9-12-----------------|
G|-9-/-11--------------------------------------------------------------------|
D|---------------------------------------------------------------------------|
A|---------------------------------------------------------------------------|
E|---------------------------------------------------------------------------|
     A6          Bm7          E7             E
e|---------------------------------------------------------------------------|  6
B|---------------------------------------------------------------------------|
G|---------------------------------------------------------------------------|
D|---------------------------------------------------------------------------|
A|---------------------------------------------------------------------------|
E|---------------------------------------------------------------------------|
     Bm        E              Bm             E
e|---------------------------------------------------------------------------|  7 - 8
B|---------------------------------------------------------------------------|
G|---HERHAAL 3  -------------------------------------------------------------|
D|---------------------------------------------------------------------------|
A|---------------------------------------------------------------------------|
E|---------------------------------------------------------------------------|



************************************

| /   slide up
| \   slide down
| h   hammer-on
| p   pull-off
| ~   vibrato
| +   harmonic
| x   Mute note
| b   Bend
| pb  Pre-bend
| br  Bend release
| pbr Pre-bend release
| brb Bend release bend

************************************
Добавлено: 26.04.2016
Другие материалы по этой песне:
  • Аккорды и текст

Страница создана 26.04.2016
http://primanota.ru/misc-unsigned-bands/greyhounds-unexpected-love-chords.htm
Привет, Гость.
Предлагаем пройти революционный курс по гитаре.
Подарок от PrimaNota.Ru, забирай!