PrimaNota.ru - самый крупный в мире бесплатный архив песенных текстов, аккордов, табулатур и нот


Misc Unsigned Bands - Good Rocking Tonight - Lover Boys Back In Town - бас-таба, видео

Регистрация Запомнить меня
Войти через:  Facebook Google Twitter Vk Yandex Mail.ru

Misc Unsigned Bands - Good Rocking Tonight - Lover Boys Back In Town - бас-таба, видео

Печатать
Просмотров: 76
Lover Boy's Back In Town
This version by Kent based Rock'n'Roll tribute band Good Rocking Tonight.
This professional band travel all over the UK, Europe and the USA. 
Well worth seeing this band if you get the chance (Check their website 
and You Tube). Tab by bass50611.Straight forward and a great version. 
Comments bass254@btinternet.com 

Intro:
G|--------------------------------------
D|--------------------------------------
A|-8-8---5-5-----------8-8---5-5--------
E|----------6-8-8-8-------------6-8-8-8-

Verse :                 (PLAY THIS x2)
G|-------------------------------------
D|-------------------------------------
A|-8-8---8---5-5---5-------------------
E|-----8---------5-----6-6-6-7-8-8-8-8-

Chorus 1:                             .
G|----------------------------------------------------------
D|----------------------------------------------------------
A|------------8-8--8-----------8-8-8--------8-8--8----------
E|-6-6---8-8-----8----9-9-9-9-------8-9--------8----8-6-5-3-

Repeat Verse x2

Chorus 2:                            .
G|---------------------------------------------------------
D|---------------------------------------------------------
A|-----------8-8--8----------8-8-8--------8-8--8----8-6-5--
E|-6-6---8-8----8-----9-9-9-9------8-9-------8-----------8-

Middle 8: (Walking Bass)                                 [Pause]
G|-----------------------------------------------------------------------
D|-----5-8-5-------7-10-7----7-10-7--------------------------------------
A|--5-8-----8-5---8---------8---------8-11-8----8-11-8---10--------------
E|-6---------------------------------9---------9-----------------8-6-5-3-

Repeat Verse x2:

Repeat Chorus 1:

Guitar Solo:                    (PLAY THIS x2)
G|-------------------------------------
D|-------------------------------------
A|-8-8---8---5-5---5-------------------
E|-----8---------5-----6-6-6-7-8-8-8-8-

G|--------------------------------------------------------------
D|--------------------------------------------------------------
A|------------8-8--8-----------8-8-8-----------8-8--8----8-6-5--
E|-6-6---8-8-----8----9-9-9-9-------8-9-9-9-9-----8-----------8-

Repeat Middle 8:

Repeat Verse x2:

Chorus 3:                             .  
G|----------------------------------------------------------
D|----------------------------------------------------------
A|------------8-8--8-----------8-8-8--------8-8--8----------
E|-6-6---8-8-----8----9-9-9-9-------8-9--------8----9-9-9-9-

          .                           [Pause]
G|--------------------------------------
D|--------------------------------------
A|-8-8-8-------8-8--8----------8-8-8----
E|------8-9-------8---9-9-9-9-------8-9-

Outro:
G|-------------------------------
D|-------------------------------
A|-12-12--11-11--10-10--9--8-8-8-
E|-------------------------------
Добавлено: 21.08.2015
Другие материалы по этой песне:
  • Аккорды и текст

Страница создана 21.08.2015
http://primanota.ru/misc-unsigned-bands/good-rocking-tonight-lover-boys-back-in-town-chords.htm
Привет, Гость.
Предлагаем пройти революционный курс по гитаре.
Подарок от PrimaNota.Ru, забирай!