PrimaNota.ru - самый крупный в мире бесплатный архив песенных текстов, аккордов, табулатур и нот


Misc Unsigned Bands - Reprisal - Out Of The Blue - бас-таба

Регистрация Запомнить меня
Войти через:  Facebook Google Twitter Vk Yandex Mail.ru

Misc Unsigned Bands - Reprisal - Out Of The Blue - бас-таба

Печатать
Просмотров: 106
(b) = bend
Spacing probably not correct so listen to song along with this.

Intro (0:05-0:41)

F|-----------------------------------------------------------------------------------------------
C|----------------------3/77777777---------------------------------------------------------------
G|-----------------------------------------------------------------------------------------------
D|-553-553-5-553-5555555----------55---55---55---55---5555555555555555555555555555555555555555555

F|------
C|------
G|------
D|55555-

F|---------------------------------------------------------------------------------------
C|----------------(b)-----------------------------------------(b)------------------------
G|-----------3---3-5-3-3-----------5/7-6-5-0-3-----------3---3-5-3-3-----------3---------
D|-5-5-3-5-3---5---------5-5-3-5-3-------------5-5-3-5-3---5---------5-5-3-5-3---35-35-3-

Verse (0:41-1:10)(1:37-2:15)

F|---------------------------------------------------------------------------------------
C|----------------(b)-----------------------------------------(b)------------------------
G|-----------3---3-5-3-3-----------5/7-6-5-0-3-----------3---3-5-3-3-----------3---------
D|-5-5-3-5-3---5---------5-5-3-5-3-------------5-5-3-5-3---5---------5-5-3-5-3---35-35-3-

F|-----------------------------5-------------------------------------------------------------
C|----------------(b)----7-7-5---5-----------------------------5/7-5-------------------5/7-5-
G|-----------3---3-5-3-3-----------5/7-6-5-0-3-8-8-8-7-5-3-3-3-------7-8-8-8-7-5-3-3-3-------
D|-5-5-3-5-3---5-----------------------------------------------------------------------------

F|----------------------------------------------------------------------------------------------
C|-----------------------------------------------------------------(b)--------------------------
G|------------------------------------------------------------3---3-5-3-3-----------3-----------
D|-5-5-5-3-5-7-7-7-7-7-5-3-/12----10-10-10-13-13-13-5-5-3-5-3---5---------5-5-3-5-3---3-5-3-5-3-

Pre-chorus (1:10-1:29)(2:15-2:34)

F|-----------------------------------------------------------------------------------------------
C|---------------------------------------------------------------1010-88-------------------------
G|-------------------------77-55-33-55-88888888888888888888888888--------00-5555555555-7\33333333
D|-555555555555555555555555----------------------------------------------------------------------

F|-------------------------------------------
C|-------------------------------------------
G|-33-555888---------------------------------
D|-----------5-555555555555555555555-3-5-3-5-

Chorus (1:29-1:37)(2:34-2:41)

F|--------------------------------------------------------
C|-----75-----77-66--9------------22-33-5-----75----------
G|-5-5---7-8-8-----------------33---------5-5---7-888-777-
D|---------------------5-5-555----------------------------

Solo (2:41-3:02)

F|---------------------------------------------------------------------------------------
C|----------------(b)-----------------------------------------(b)------------------------
G|-----------3---3-5-3-3-----------5/7-6-5-0-3-----------3---3-5-3-3-----------3---------
D|-5-5-3-5-3---5---------5-5-3-5-3-------------5-5-3-5-3---5---------5-5-3-5-3---35-35-3-

F|-----------------------------5-----------------------------------------------------------------
C|----------------(b)----7-7-5---5---------------------------(b)---------------------------------
G|-----------3---3-5-3-3----------5/7-6-5-0-3-----------3---3-5-3-3----------3-------------------
D|-5-5-3-5-3---5------------------------------5-5-3-5-3---5--------5-5-3-5-3---3-5-3-5-3-5(ring)-

Outro (3:16-3:37)

F|---------------------------------------------------------------------------------------
C|----------------(b)-----------------------------------------(b)------------------------
G|-----------3---3-5-3-3-----------5/7-6-5-0-3-----------3---3-5-3-3-----------3---------
D|-5-5-3-5-3---5---------5-5-3-5-3-------------5-5-3-5-3---5---------5-5-3-5-3---35-35-3-

F|-----------------------------------------------------------------------------5---------
C|----------------(b)-----------------------------------------(b)----7-7-5-7-7-----------
G|-----------3---3-5-3-3-----------5/7-6-5-0-3-----------3---3-5-3-3---------------------
D|-5-5-3-5-3---5---------5-5-3-5-3-------------5-5-3-5-3---5---------------------3-5-3-5-
Добавлено: 21.08.2015
Другие материалы по этой песне:
  • Аккорды и текст

Страница создана 21.08.2015
http://primanota.ru/misc-unsigned-bands/reprisal-out-of-blue-chords.htm
Привет, Гость.
Предлагаем пройти революционный курс по гитаре.
Подарок от PrimaNota.Ru, забирай!