PrimaNota.ru - самый крупный в мире бесплатный архив песенных текстов, аккордов, табулатур и нот


Misc Unsigned Bands - Rachel Sweet - B A B Y - бас-таба, видео

Регистрация Запомнить меня
Войти через:  Facebook Google Twitter Vk Yandex Mail.ru

Misc Unsigned Bands - Rachel Sweet - B A B Y - бас-таба, видео

Печатать
Просмотров: 46
B-A-B-Y
Originally a Carla Thomas song in 1966, this version by 
American Rachel Sweet reached number 35 in 1978 UK Charts.
Tab bass50611. Welcome to my tab that isn't exact to original
Playing in verse is similar to a walking bass.
Comments at bass254@btinternet.com 

Intro:
G|-------------------------------------------------------
D|-1-----1--------------1------1-----1-------------1-----
A|---3-1---3-1-3----1-3---3-1---3-1---3-1-3----1-3---3-1-
E|----------------4--------------------------4-----------

Verse 1:                                    (Play This x2)
G|--------------------------------------------------------
D|-1-----1--------------1------1-----1--------------1-----
A|---3-1---3-1-3----1-3---3-1---3-1---3-1-3----1-3----3-1-
E|----------------4--------------------------4------------

G|-1-----1--------------1-----1-----1--------------1-----
D|---3-1---3-1-3----1-3---3-1---3-1---3-1-3----1-3---3-1-
A|----------------4--------------------------4-----------
E|-------------------------------------------------------

         (First Time)       (Second Time)
   .        .      .        .        .      .      .
G|-------------------|    |--------------------------
D|-------------------|    |--------------------------
A|-1------1-2------1-|    |-1------/14------2------1-
E|-------------------|    |--------------------------

Repeat Verse 1:

Bridge:
G|------------------------------------------------------------
D|-1--1--1--1---0-1--1--1--1---0-1--1--1--1-------------------
A|-------------4--------------4-------------4-5---3-33---3-33-
E|------------------------------------------------------------

G|----------------------------------------3-33-33-3-33-33-
D|-1-3-33---3-33---------------1-3-3--5-5-----------------
A|---------------1-3-33---3-33----------------------------
E|--------------------------------------------------------

Instrumental:
G|--------------------------------------------------------
D|-1-----1--------------1------1-----1--------------1-----
A|---3-1---3-1-3----1-3---3-1---3-1---3-1-3----1-3----3-1-
E|----------------4--------------------------4------------

G|---------------------------------
D|-3-33-3---3-33-3-----------------
A|-----------------1-11-1---1-11-1-
E|---------------------------------

Last Verse:                              (Play This Bit x2)
G|--------------------------------------------------------
D|-1-----1--------------1------1-----1--------------1-----
A|---3-1---3-1-3----1-3---3-1---3-1---3-1-3----1-3----3-1-
E|----------------4--------------------------4------------

G|-1-----1-----------1------1-----1-----------1----
D|---3-1--3-1-3---1-3-3-1-----3-1--3-1-3---1-3-3-1-
A|--------------4------------------------4---------
E|-------------------------------------------------

   .        .      .      [Quavers]
G|----------------------------------
D|----------------------------------
A|-1------/14------2-------11111111-
E|----------------------------------

Outro: (Key Change)
G|------------------------------------------------
D|-2----2------------2-----2----2------------2----
A|--4-2--4-2-4--0-2-4-4-2---4-2--4-2-4--0-2-4-4-2-
E|------------------------------------------------

Repeat This To Fade/End:
              [Turn Around]
G|-----------------------
D|-2----2-----2--2--0--1-
A|--4-2--4-2-------------
E|-----------------------



Добавлено: 27.08.2015
Другие материалы по этой песне:
  • Аккорды и текст

Страница создана 27.08.2015
http://primanota.ru/misc-unsigned-bands/rachel-sweet-b-a-b-y-chords.htm
Привет, Гость.
Предлагаем пройти революционный курс по гитаре.
Подарок от PrimaNota.Ru, забирай!