PrimaNota.ru - самый крупный в мире бесплатный архив песенных текстов, аккордов, табулатур и нот


Misc Unsigned Bands - Pinkshinyultrablast - Holy Forest - бас-таба

Регистрация Запомнить меня
Войти через:  Facebook Google Twitter Vk Yandex Mail.ru

Misc Unsigned Bands - Pinkshinyultrablast - Holy Forest - бас-таба

Печатать
Просмотров: 138
-------------------------------------------------------------------------------
                      
                        Holy Forest - Pinkshinyultrablast

-------------------------------------------------------------------------------

Tabbed by: Elmo
E-mail: mille9910@outlook.com

Tuning: E A D G (Standard)

Enjoy!

(Rest 4 [6/8]-bars before intro)

Intro [6/8] 
   +   +   +   +   +   +      
8x q     e     e e e e q                    
G|--------------------------| 
D|--------------------------| 
A|---------------------5----| 
E|-3-----3-----3-3-3h5------| 


Bridge [6/8].                 [6/8]
   +   +   +   +   +   +         +   +   +   +   +   +  
3x q     e e   q     e q      1x e e   e e   q     e q    
G|--------------------------| G|-------------------5h7----| 
D|--------------------------| D|-5-5---5-5---5------------|
A|-------------------3h5----| A|--------------------------|
E|-3-----3-3---3------------| E|--------------------------| 
 

Verse [6/8]
   +   +   +   +   +   +     
8x q     e     e e e e q           
G|--------------------------| 
D|--------------------------| 
A|---------------------5----| 
E|-3-----3-----3-3-3h5------| 


Bridge [6/8]                                                  
   +   +   +   +   +   +         
2x q     e e   q     e q      
G|--------------------------| 
D|--------------------------| 
A|-------------------3h5----| 
E|-3-----3-3---3------------|  
 
[4/4]
   +   +   +   +      
1x e e   e e   e e
G|-------------2-2--|
D|-------4-4--------|
A|-2-2--------------|
E|------------------|


Chorus 4x [4/4]       [4/4]      
   +   +   +   +         +   +   +   +
2x e e e e e e e e    1x e e e e e e q
G|------------------| G|-----------------|
D|------------------| D|-----------------|
A|-5-5-5-5-5-5-5-5--| A|-5-5-5-5-5-5-5/0-|
E|------------------| E|-----------------|

[4/4]                 [4/4]
   +   +   +   +         +   +   +   +     
1x q   e e  e q       1x   e e e e e e e           
G|------------------| G|------------------|
D|------------------| D|-----4-4-4-4-4-4--|
A|-0---0-0---0-2----| A|---2--------------|
E|------------------| E|------------------|


(Ending of 1st-3rd Chorus)                  | (Ending of 4th Chorus)            
[4/4]                 [4/4]                 | [4/4]
   +   +   +   +         +   +   +   +      |    +   +   +   +
2x e e e e e e e e    1x e e   e e   e e    | 1x e e e e e e e e
G|------------------| G|-------------2-2--| | G|------------------|
D|-5-5-5-5-5-5-5-5--| D|-------4-4--------| | D|-5-5-5-5-5-5-5-5--|
A|------------------| A|-2-2--------------| | A|------------------|
E|------------------| E|------------------| | E|------------------|


Bridge [6/8]                  [6/8]
   +   +   +   +   +   +         +   +   +   +   +   +    
3x q     e e   q     e q      1x e e   e e   q     e q    
G|--------------------------| G|-------------------5h7----| 
D|--------------------------| D|-5-5---5-5---5------------|
A|-------------------3h5----| A|--------------------------|
E|-3-----3-3---3------------| E|--------------------------| 

[4/4]
   +   +   +   +      
1x e e   e e   e e
G|-------------2-2--|
D|-------4-4--------|
A|-2-2--------------|
E|------------------|


Chorus 4x [4/4].      [4/4]       
   +   +   +   +         +   +   +   +
2x e e e e e e e e    1x e e e e e e q
G|------------------| G|-----------------|
D|------------------| D|-----------------|
A|-5-5-5-5-5-5-5-5--| A|-5-5-5-5-5-5-5/0-|
E|------------------| E|-----------------|

[4/4]                 [4/4]
   +   +   +   +         +   +   +   +  
1x q   e q   e q      1x   e e e e e e e
G|------------------| G|------------------|
D|------------------| D|-----4-4-4-4-4-4--|
A|-0---0-0---0-2----| A|---2--------------|
E|------------------| E|------------------|

(Ending of 1st-3rd Chorus)                  | (Ending of 4th Chorus)            
[4/4]                 [4/4]                 | [4/4]
   +   +   +   +         +   +   +   +      |    +   +   +   +
2x e e e e e e e e    1x e e   e e   e e    | 2x e e e e e e e e
G|------------------| G|-------------2-2--| | G|------------------|
D|-5-5-5-5-5-5-5-5--| D|-------4-4--------| | D|-5-5-5-5-5-5-5-5--|
A|------------------| A|-2-2--------------| | A|------------------|
E|------------------| E|------------------| | E|------------------|


Interlude

Part 1. 2x

[6/8]                         [6/8]
   +   +   +   +   +   +         +   +   +   +   +   +    
1x e     e     e e            1x e     e     e e       
G|--------------------------| G|--------------------------| 
D|--------------------------| D|--------------------------|
A|--------------------------| A|--------------------------|
E|-3-----3-----3-3----------| E|-3-----3-----3-3----------| 


Part 2. 2x

[6/8]                        
   +   +   +   +   +   +    
1x e     e     e e   e q 
G|--------------------------|
D|--------------------------|
A|-2-----2-----5-5---5-5\2--|
E|--------------------------|

[6/8]                         [6/8]
   +   +   +   +   +   +         +   +   +   +   +   +    
1x e     e     e e            1x e     e     e e       
G|--------------------------| G|--------------------------| 
D|--------------------------| D|--------------------------|
A|--------------------------| A|--------------------------|
E|-3-----3-----3-3----------| E|-3-----3-----2-2----------| 


Part 3. 1x
[6/8]                        
   +   +   +   +   +   +     
1x e e   e e   e e   e q     
G|--------------------------|
D|--------------------------|
A|-2-2---2-2---5-5---5-5\2--|
E|--------------------------|

[6/8]                         [6/8]
   +   +   +   +   +   +         +   +   +   +   +   +    
1x e     e     e e            1x e e   e     e e     
G|--------------------------| G|--------------------------| 
D|--------------------------| D|--------------------------|
A|--------------------------| A|--------------------------|
E|-3-----3-----3-3----------| E|-3-3---3-----2-2----------| 


Part 4. 2x

[6/8]                        
   +   +   +   +   +   +     
1x e e   e e   e e   e q     
G|--------------------------|
D|--------------------------|
A|-2-2---2-2---5-5---5-5\2--|
E|--------------------------|

[6/8]                         [6/8]
   +   +   +   +   +   +         +   +   +   +   +   +    
1x e     e     e e            1x e     e     e e     
G|--------------------------| G|--------------------------| 
D|-------------4-5----------| D|-------------4-2----------|
A|--------------------------| A|--------------------------|
E|-3-----3------------------| E|-3-----3------------------| 


Part 5. 1x

[6/8]                        
   +   +   +   +   +   +     
1x e e   e e   e e   e q     
G|--------------------------|
D|--------------------------|
A|-2-2---2-2---5-5---5-5\2--|
E|--------------------------|  


Break [6/8]
   +   +   +   +   +   +     
2x      
G|--------------------------|
D|--------------------------|
A|--------------------------|
E|--------------------------|  


Outro 3x [6/8]
   +   +   +   +   +   +         +   +   +   +   +   +  
2x q     q     h              1x q     q     q     e e
G|--------------------------| G|--------------------------| 
D|--------------------------| D|--------------------------|
A|--------------------------| A|--------------------------|
E|-3-----3-----3------------| E|-5-----5-----5-----5-5----| 

[6/8]                        
   +   +   +   +   +   +     
1x e e   e e   e e   e q     
G|--------------------------|
D|--------------------------|
A|-2-2---2-2---5-5---5-5\2--|
E|--------------------------| 

After 3rd time, end with:

[6/8]                        
   +   +   +   +   +   +     
1x w    
G|--------------------------|
D|--------------------------|
A|--------------------------|
E|-3------------------------| 


Hope you liked it! 

Please comment on suggestions you might have to improve the tab!

| /  slide up
| \  slide down
| h  hammer-on
| e  eighteenth 
| q  quarter 
| h  half
| w  whole
| +  beat
|[x/x]  time signature 

===============================================================================
Добавлено: 22.08.2015
Другие материалы по этой песне:
  • Аккорды и текст

Страница создана 22.08.2015
http://primanota.ru/misc-unsigned-bands/pinkshinyultrablast-holy-forest-chords.htm
Привет, Гость.
Предлагаем пройти революционный курс по гитаре.
Подарок от PrimaNota.Ru, забирай!