PrimaNota.ru - самый крупный в мире бесплатный архив песенных текстов, аккордов, табулатур и нот


Misc Unsigned Bands - Maisonettes - Heartache Avenue - бас-таба

Регистрация Запомнить меня
Войти через:  Facebook Google Twitter Vk Yandex Mail.ru

Misc Unsigned Bands - Maisonettes - Heartache Avenue - бас-таба

Печатать
Просмотров: 84
Heartache Avenue
A one hit wonder for The Maisonettes charting at number 7 UK in 
Early 1983. Tab by bass50611.  Straight forward and easy song to 
Play along to. Tab as original recording
Comments at bass254@btinternet.com 

Intro:      .                       .   (Play This x2)
G|------------------6--8--------------------6--8-
D|---------1-------6-6-------------1-------6-6---
A|------1-4-4-------------------1-4-4------------
E|-2---2-------------------2---2-----------------

Verse:      .                      .   (Play This x2)
G|---------------------------------------------
D|---------1----------------------1------------
A|------1-4-4------4--6--------1-4-4------4--6-
E|-2---2----------4-4-----2---2----------4-4---

Chorus:                    (Break)
G|---------------------------
D|-4-44----------------------
A|-------1-11---4-44---1-2-4-
E|---------------------------

Interlude:  .                      .
G|---------------------------------------------
D|---------1----------------------1------------
A|------1-4-4------4--6--------1-4-4------4--6-
E|-2---2----------4-4-----2---2----------4-4---

Repeat Verse: (x2)

Repeat Chorus:

Repeat Interlude:

Bridge:
G|------------------------------------------------------
D|-6-66-6---5-55-5---4-44-4---3-33--4-5-6-66-6---5-55-5-
A|------------------------------------------------------
E|------------------------------------------------------

G|-------------------------------------------------------
D|-4-44-4---3-33-3------------------------------------4--
A|------------------7-77-7---6-66-6---4-44-4-4---4-4-6-6-
E|-------------------------------------------------------

Repeat Verse:

Repeat Chorus:

Repeat Interlude:

Repeat Bridge:

Repeat Interlude To Fade/End:
Добавлено: 23.08.2015
Другие материалы по этой песне:
  • Аккорды и текст

Страница создана 23.08.2015
http://primanota.ru/misc-unsigned-bands/maisonettes-heartache-avenue-chords.htm
Привет, Гость.
Предлагаем пройти революционный курс по гитаре.
Подарок от PrimaNota.Ru, забирай!