PrimaNota.ru - самый крупный в мире бесплатный архив песенных текстов, аккордов, табулатур и нот


Misc Unsigned Bands - Reprisal - Fake It - бас-таба

Регистрация Запомнить меня
Войти через:  Facebook Google Twitter Vk Yandex Mail.ru

Misc Unsigned Bands - Reprisal - Fake It - бас-таба

Печатать
Просмотров: 101
-------------------------------------------------------------------------------
                             Fake it - Reprisal
-------------------------------------------------------------------------------
 Spacing is inconsistent so don't follow that, not sure on some stuff because this one isn't recorded.

Tuning: D standard

Intro (
F|---------------------------------------------------------------------------|
C|---------------6---------6-------6-----------------------------------------|
G|------------757-5-----757-5---757-5---75-----------------------------------|(x2)
D|-0--------0-------0-0-------0-------0---543--------------------------------|

Verse (
F|---------------------------------------------------------------------------|
C|---------------------------------------------------------------------------|
G|-77777-77777-77777-7-------------------------------------------------------|(x8)
D|--------------------666-55555-55555-55555-5333-----------------------------|

F|---------------|     |-----------------------------------------------------|
C|----------797--|     |-----------------------------------------------------|
G|-------710---10|(x3) |-7-7-777----555--------------------------------------|
D|-7-7-7---------|     |---------333-----------------------------------------|

Chorus (
F|---------------------------------------------------------------------------|
C|------5--------567-7-7-77/9-5-5555-----------------------------------------|
G|-7-7-7-75-55555-------------------556--------------------------------------|(x4)
D|---------------------------------------------------------------------------|
  
F|---------------------------------------------------------------------------|
C|---------------------------------------------------------------------------|
G|-77777-77777-77777-7-556-77777-77777-77777-7-556---------------------------|
D|---------------------------------------------------------------------------|

Solo (
F|--------------------------|                      |-----------------------------------------------------------|
C|--------------------------|                      |-----------------------------------------------------------|
G|-77777-77777-777777-7-556-|(xDno, listen to sonk)|-77777-77777-77777-7-556-7----------------------7----------|
D|--------------------------|                      |-------------------------0----------------------0(ring x2)-|

Outro (
F|-------------------------|     |------------------------|     |-----9-----|
C|-------------------------|     |------------------------|     |-----9-----|
G|-77777-77777-77777-7-556-|(x4) |--------------------555-|(x4) |-----7-----|(play power chord until end)
D|-------------------------|     |-00000-00000-00000-0----|     |-0---0-----| 


| /  slide up
| \  slide down
| h  hammer-on
| p  pull-off
| ~  vibrato
| +  harmonic
| x  Mute note
===============================================================================
Добавлено: 21.08.2015
Другие материалы по этой песне:
  • Аккорды и текст

Страница создана 21.08.2015
http://primanota.ru/misc-unsigned-bands/reprisal-fake-it-chords.htm
Привет, Гость.
Предлагаем пройти революционный курс по гитаре.
Подарок от PrimaNota.Ru, забирай!