PrimaNota.ru - самый крупный в мире бесплатный архив песенных текстов, аккордов, табулатур и нот


Misc Unsigned Bands - Gone - Energy Infinite - таба

Регистрация Запомнить меня
Войти через:  Facebook Google Twitter Vk Yandex Mail.ru

Misc Unsigned Bands - Gone - Energy Infinite - таба

Печатать
Просмотров: 59
-------------------------------------------------------------------------------
                             Gone - Energy Infinite
-------------------------------------------------------------------------------
Tabbed by: TheDankTank
E-mail: jonanderson1996@gmail.com

Tuning: Standard (EADGBe) 

Intro
e|---------------------------------------------------------------------------|
B|---------------------------------------------------------------------------|
G|---------------------------------------------------------------------------|
D|---------------------------------------------------------------------------|
A|---4-4-4-4---7-7-7-7---2-2-2-2---0-0-0-0-----------------------------------|
E|---------------------------------------------------------------------------|

e|---------------------------------------------------------------------------|
B|---------------------------------------------------------------------------|
G|---------------------------------------------------------------------------|
D|-----6---6-----9---9-----4---4-----2---2-----------------------------------|
A|---4---4-----7---7-----2---2-----0---0-------------------------------------|
E|---------------------------------------------------------------------------|

e|---------------------------------------------------------------------------|
B|---5--5--------------------------------------------------------------------|
G|---6--6-----9--9-----4--4-----2---2-2--------------------------------------|
D|---6--6-----9--9-----4--4-----2---2-2--------------------------------------|  (x3)
A|---4--4-----7--7-----2--2-----0---0-0--------------------------------------|
E|---------------------------------------------------------------------------|

e|---------------------------------------------------------------------------|
B|---5--5--------------------------------------------------------------------|
G|---6--6-----9--9-----4--4--------------------------------------------------|
D|---6--6-----9--9-----4--4-----2---2-2--------------------------------------|  
A|---4--4-----7--7-----2--2-----2---2-2--------------------------------------|
E|------------------------------0---0-0--------------------------------------|

Verse
Guitar 1
e|---------------------------------------------------------------------------|
B|---------------------------------------------------------------------------|
G|---------------------------------------------------------------------------|
D|-----6---6---6---6---2---2---2---2---2---2---2---2---4---4---4---4---------|  (x4)
A|---4---4---4---4---0---0---0---0-------------------2---2---2---2-----------|
E|-----------------------------------0---0---0---0---------------------------|

Guitar 2
e|---4-----------------------------------------------------------------------|
B|---5------------------------------------------------4----------------------|
G|---6----------------2-------------------------------4----------------------|
D|---6----------------2---------------2---------------4----------------------|  (x4)
A|---4----------------0---------------2---------------2----------------------|
E|------------------------------------0--------------------------------------|

Pre-Chorus
e|---4-----0-----7-----0-----4-----------------------------------------------|
B|-----5-----5-----5-----5-----5---------------------------------------------|
G|-------6-----6-----6-----6-----6-------------------------------------------|
D|---------------------------------------------------------------------------|
A|---------------------------------------------------------------------------|
E|---------------------------------------------------------------------------|

Chorus
Guitar 1
e|---9-7---7-------------------9-7---7---------------------------------------|
B|-------9---9-7--5--5-7/9-5-5-----9---9--7-7--------------------------------|
G|---------------------------------------------------------------------------|
D|---------------------------------------------------------------------------|
A|---------------------------------------------------------------------------|
E|---------------------------------------------------------------------------|

Guitar 2
e|---------------------------------------------------------------------------|
B|---5-5-5-/-9-9-9-\-4-4-4---------------------------------------------------|
G|---6-6-6-/-9-9-9-\-4-4-4--2---2-2------------------------------------------|
D|---6-6-6-/-9-9-9-\-4-4-4--2---2-2------------------------------------------|  (x4)
A|---4-4-4-/-7-7-7-\-2-2-2--0---0-0------------------------------------------|
E|---------------------------------------------------------------------------|

Post-Chorus
e|---4-----0-----7-----0-----4-----------------------------------------------|
B|-----5-----5-----5-----5-----5---------------------------------------------|
G|-------6-----6-----6-----6-----6-------------------------------------------|
D|---------------------------------------------------------------------------|
A|---------------------------------------------------------------------------|
E|---------------------------------------------------------------------------|

Verse
Guitar 1
e|---------------------------------------------------------------------------|
B|---------------------------------------------------------------------------|
G|---------------------------------------------------------------------------|
D|-----6---6---6---6---2---2---2---2---2---2---2---2---4---4---4---4---------|  (x4)
A|---4---4---4---4---0---0---0---0-------------------2---2---2---2-----------|
E|-----------------------------------0---0---0---0---------------------------|

Guitar 2
e|---4-----------------------------------------------------------------------|
B|---5------------------------------------------------4----------------------|
G|---6----------------2-------------------------------4----------------------|
D|---6----------------2---------------2---------------4----------------------|  (x4)
A|---4----------------0---------------2---------------2----------------------|
E|------------------------------------0--------------------------------------|

Pre-Chorus
e|---4-----0-----7-----0-----4-----------------------------------------------|
B|-----5-----5-----5-----5-----5---------------------------------------------|
G|-------6-----6-----6-----6-----6-------------------------------------------|
D|---------------------------------------------------------------------------|
A|---------------------------------------------------------------------------|
E|---------------------------------------------------------------------------|

Chorus
Guitar 1
e|---9-7---7-------------------9-7---7---------------------------------------|
B|-------9---9-7--5--5-7/9-5-5-----9---9--7-7--------------------------------|
G|---------------------------------------------------------------------------|
D|---------------------------------------------------------------------------|
A|---------------------------------------------------------------------------|
E|---------------------------------------------------------------------------|

Guitar 2
e|---------------------------------------------------------------------------|
B|---5-5-5-/-9-9-9-\-4-4-4---------------------------------------------------|
G|---6-6-6-/-9-9-9-\-4-4-4--2---2-2------------------------------------------|
D|---6-6-6-/-9-9-9-\-4-4-4--2---2-2------------------------------------------|  (x4)
A|---4-4-4-/-7-7-7-\-2-2-2--0---0-0------------------------------------------|
E|---------------------------------------------------------------------------|

Post-Chorus
e|---4-----0-----7-----0-----4------4-4-4-0-0-0-7-7-7-0-0-0-4-4-0------------|
B|-----5-----5-----5-----5-----5----5-5-5-5-5-5-5-5-5-5-5-5-5-5-5------------|
G|-------6-----6-----6-----6-----6--6-6-6-6-6-6-6-6-6-6-6-6-6-6-6------------|
D|---------------------------------------------------------------------------|
A|---------------------------------------------------------------------------|
E|---------------------------------------------------------------------------|

Bridge A
e|---------------------------------------------------------------------------|
B|---------------------------------------------------------------------------|
G|---9-----------------------------------------------------------------------|
D|---9-(x16)--9---------11---------7-----------------------------------------|  (x2)
A|---7--------9-(x16)---11-(x16)---7-(x16)-----------------------------------|
E|------------7----------9---------5-----------------------------------------|

Guitar Solo
Guitar 1
e|---------------------------------------------------------------------------|
B|---------------------------------------------------------------------------|
G|---9-----------------------------------------------------------------------|
D|---9-(x16)--9---------11---------7-----------------------------------------|  (x2)
A|---7--------9-(x16)---11-(x16)---7-(x16)-----------------------------------|
E|------------7----------9---------5-----------------------------------------|

Guitar 2
e|---------------------------------------------------------------------------|
B|---------------------------------------------------------------------------|
G|-------9--9h11b-9-----11-9--9-11-11b-9-------------------------------------|
D|---9h11-11--------11-9----11-----------11-9--------------------------------|  
A|---------------------------------------------------------------------------|
E|---------------------------------------------------------------------------|

e|---12p9-11p9------12p9-11p9------12p9-11p9---------------------------------|
B|-------------12p9-----------12p9-----------12-----/10-10-10-10-9-7---------|
G|---------------------------------------------------------------------------|
D|---------------------------------------------------------------------------|  
A|---------------------------------------------------------------------------|
E|---------------------------------------------------------------------------|

e|---/12-11-9-------------------------------------12-11-9----9-/14-12---9-12-|
B|------------12-9--9-12---------------------12-9---------12-----------------|
G|-----------------------9-11-9----9-11-9-11---------------------------------|
D|------------------------------11-------------------------------------------|  
A|---------------------------------------------------------------------------|
E|---------------------------------------------------------------------------|

e|---9----9-12--9h12p9----9---14h12p9-14h12p9-14h12p9-14h12p9-16h12p9-16h12p9-16h12p9-16h12p9--|
B|-----12--------------12----------------------------------------------------------------------|
G|---------------------------------------------------------------------------------------------|
D|---------------------------------------------------------------------------------------------|  
A|---------------------------------------------------------------------------------------------|
E|---------------------------------------------------------------------------------------------|

e|---17h12p9-17h12p9-17h12p9-17h12p9-9h12------------------------------------|
B|----------------------------------------14---------------------------------|
G|---------------------------------------------------------------------------|
D|---------------------------------------------------------------------------|  
A|---------------------------------------------------------------------------|
E|---------------------------------------------------------------------------|

Chorus
Guitar 1
e|---9-7---7-------------------9-7---7---------------------------------------|
B|-------9---9-7--5--5-7/9-5-5-----9---9--7-7--------------------------------|
G|---------------------------------------------------------------------------|
D|---------------------------------------------------------------------------|
A|---------------------------------------------------------------------------|
E|---------------------------------------------------------------------------|

Guitar 2
e|---------------------------------------------------------------------------|
B|---5-5-5-/-9-9-9-\-4-4-4---------------------------------------------------|
G|---6-6-6-/-9-9-9-\-4-4-4--2---2-2------------------------------------------|
D|---6-6-6-/-9-9-9-\-4-4-4--2---2-2------------------------------------------|  (x8)
A|---4-4-4-/-7-7-7-\-2-2-2--0---0-0------------------------------------------|
E|---------------------------------------------------------------------------|

Guitar 1
e|---9-7---7-------------------9-7---7---------------------------------------|
B|-------9---9-7--5--5-7/9-5-5-----9---9--7-7--------------------------------|
G|---------------------------------------------------------------------------|
D|---------------------------------------------------------------------------|   (x4)
A|---------------------------------------------------------------------------|
E|---------------------------------------------------------------------------|

Guitar 2
e|---------------------------------------------------------------------------|
B|---5-5-5-/-9-9-9-\-4-4-4---------------------------------------------------|
G|---6-6-6-/-9-9-9-\-4-4-4--2---2-2------------------------------------------|
D|---6-6-6-/-9-9-9-\-4-4-4--2---2-2------------------------------------------|  (x8)
A|---4-4-4-/-7-7-7-\-2-2-2--0---0-0------------------------------------------|
E|---------------------------------------------------------------------------|

************************************

| /   slide up
| \   slide down
| h   hammer-on
| p   pull-off
| ~   vibrato
| +   harmonic
| x   Mute note
| b   Bend
| pb  Pre-bend
| br  Bend release
| pbr Pre-bend release
| brb Bend release bend

************************************
Добавлено: 25.03.2016
Другие материалы по этой песне:
  • Аккорды и текст

Страница создана 25.03.2016
http://primanota.ru/misc-unsigned-bands/gone-energy-infinite-chords.htm
Привет, Гость.
Предлагаем пройти революционный курс по гитаре.
Подарок от PrimaNota.Ru, забирай!