PrimaNota.ru - самый крупный в мире бесплатный архив песенных текстов, аккордов, табулатур и нот


Misc Unsigned Bands - Hello Fame On Fire - таба

Регистрация Запомнить меня
Войти через:  Facebook Google Twitter Vk Yandex Mail.ru

Misc Unsigned Bands - Hello Fame On Fire - таба

Печатать
Просмотров: 118
-------------------------------------------------------------------------------
                         Hello - Adele (Fame on Fire Cover)
-------------------------------------------------------------------------------
Tabbed by: i.y.f.f.e (In Your Face Fuck Everything)
E-mail: hagernathan@yahoo.com

Tuning: Drop B (B Gb B E A Db)

                (INTRO)                                     (PRE-CHORUS)
Db|------------------------------------| |--------------------------------------------------|
A |------------------------------------| |--------------------------------------------------|
E |------------2---2--2----------------| |--------------------------------------------------|
B |-4---4--4---2---2--2---2---2--2---0-| |-4---4--2---2--6---6--7---7---4---4--2---2--0---0-|
Gb|-4---4--4---0---0--0---2---2--2---0-| |-4---4--2---2--4---4--5---5---4---4--2---2--0---0-|
B |-4---4--4--------------2---2--2---0-| |-4---4--2---2-----------------4---4--2---2--0---0-|
        pm pm      pm pm      pm pm            pm     pm     pm     pm      pm     pm     pm

           (Chorus X8)                                  (BRIDGE)                                (Opt. Run After)
Db|----------------------------| |--------------------------------------------------------|        |---------|
A |----------------------------| |--------------------------------------------------------|        |---------|
E |---------------2---2--------| |--------------------------------------------------------|        |---------|
B |-4---4--0---0--2---2--2---2-| |--------------------------------------------------------|        |-4p2-----|
Gb|-4---4--0---0--0---0--2---2-| |-----------0--0-0--0-0--0-0-----------------------------|        |-----4p2-|
B |-4---4--0---0---------2---2-| |-4--4-4--4------------------2--2-2--2--0--0-0--0-0--0-0-|        |---------|
        pm     pm     pm     pm    pm pmpm pmpm pmpm pmpm pmpmpm pmpm pm pm pmpm pmpm pmpm

             (PRE-CHORUS)                       (Chorus X8)                
Db|---------------------------------| |----------------------------|
A |---------------------------------| |----------------------------|
E |---------------------------------| |---------------2---2--------|
B |-----------------2-2-2-----------| |-4---4--0---0--2---2--2---2-|
Gb|-4-4-4-2-2-2-2-2-0-0-0-0-0-0-0-0-| |-4---4--0---0--0---0--2---2-|
B |-4-4-4-2-2-2-2-2-------0-0-0-0-0-| |-4---4--0---0---------2---2-|
    pmpmpmpmpmpmpmpmpmpmpmpmpmpmpmpm        pm     pm     pm     pm
Db|------------------------------------------------------------------------------------------------------------|
A |------------------------------------------------------------------------------------------------------------|
E |------------------------------------------------------------------------------------------------------------|
B |------------------------------------------------------------------------------------------------------------|
Gb|------------------------------------------------------------------------------------------------------------|
B |------------------------------------------------------------------------------------------------------------|

Db|------------------------------------------------------------------------------------------------------------|
A |------------------------------------------------------------------------------------------------------------|
E |------------------------------------------------------------------------------------------------------------|
B |------------------------------------------------------------------------------------------------------------|
Gb|------------------------------------------------------------------------------------------------------------|
B |------------------------------------------------------------------------------------------------------------|

Db|------------------------------------------------------------------------------------------------------------|
A |------------------------------------------------------------------------------------------------------------|
E |------------------------------------------------------------------------------------------------------------|
B |------------------------------------------------------------------------------------------------------------|
Gb|------------------------------------------------------------------------------------------------------------|
B |------------------------------------------------------------------------------------------------------------|

Db|------------------------------------------------------------------------------------------------------------|
A |------------------------------------------------------------------------------------------------------------|
E |------------------------------------------------------------------------------------------------------------|
B |------------------------------------------------------------------------------------------------------------|
Gb|------------------------------------------------------------------------------------------------------------|
B |------------------------------------------------------------------------------------------------------------|

Db|------------------------------------------------------------------------------------------------------------|
A |------------------------------------------------------------------------------------------------------------|
E |------------------------------------------------------------------------------------------------------------|
B |------------------------------------------------------------------------------------------------------------|
Gb|------------------------------------------------------------------------------------------------------------|
B |------------------------------------------------------------------------------------------------------------|


************************************

| /   slide up
| \   slide down
| h   hammer-on
| p   pull-off
| ~   vibrato
| +   harmonic
| x   Mute note
| b   Bend
| pb  Pre-bend
| br  Bend release
| pbr Pre-bend release
| brb Bend release bend

************************************
Добавлено: 18.04.2016
Другие материалы по этой песне:
  • Аккорды и текст

Страница создана 18.04.2016
http://primanota.ru/misc-unsigned-bands/hello-fame-on-fire-chords.htm
Привет, Гость.
Предлагаем пройти революционный курс по гитаре.
Подарок от PrimaNota.Ru, забирай!