PrimaNota.ru - самый крупный в мире бесплатный архив песенных текстов, аккордов, табулатур и нот


Misc Unsigned Bands - Heavy Metal Rhythm - таба

Регистрация Запомнить меня
Войти через:  Facebook Google Twitter Vk Yandex Mail.ru

Misc Unsigned Bands - Heavy Metal Rhythm - таба

Печатать
Просмотров: 94
                             Heavy Metal Rhythm & Solo                        


instructor :Hisham Alsanea

                     C5                      G#5           A5            
     H.              S  S S E.  S S S E.     S   S S S S S S  S S S S S  
E||---------------|-----------------------|-----------------------------|
B||---------------|-----------------------|-----------------------------|
G||---------------|-----------------------|-----------------------------|
D||---------------|-----------------------|----------------3--5-3-------|
A||---------------|--3--3-3-6---3-3-3-5---|--3---------3-6--------6-5-3-|
E||---------------|-----------------------|------6-4-6------------------|


  C5                      G#5           A#5              C5                    
  S  S S E.  S S S E.     S   S S S S S S   S S S S S    S  S S E.  S S S E.   
-----------------------|------------------------------|-----------------------|
-----------------------|------------------------------|-----------------------|
-----------------------|------------------------------|-----------------------|
-----------------------|----------------3---5-3-------|-----------------------|
--3--3-3-6---3-3-3-5---|--3---------3-6---------6-5-3-|--3--3-3-6---3-3-3-5---|
-----------------------|------6-4-6-------------------|-----------------------|


  G#5           A#5              C5                    
  S   S S S S S S   S S S S S    S  S S E.  S S S E.   
------------------------------|-----------------------|
------------------------------|-----------------------|
------------------------------|-----------------------|
----------------3---5-3-------|-----------------------|
--3---------3-6---------6-5-3-|--3--3-3-6---3-3-3-5---|
------6-4-6-------------------|-----------------------|


  G#5           A#5                  F5                 
  S   S S S S S S   S S S S S    E.  S  S S S S S E  S  
------------------------------|------------------------|
------------------------------|------------------------|
------------------------------|------------------------|
----------------3---5-3-------|--3--------------6----5-|
--3---------3-6---------6-5-3-|------3--3-3-3-3--------|
------6-4-6-------------------|------1--1-1-1-1--------|


  G5                           G#5                 
  E.  S S S S S S S S S    E.  S   S S S S S E  S  
------------------------|-------------------------|
------------------------|-------------------------|
--L---------------------|------------------5----3-|
------------------------|--6----------------------|
--5---5-5-5-5-5-5-5-5-5-|------6---6-6-6-6--------|
--3---3-3-3-3-3-3-3-3-3-|------4---4-4-4-4--------|


      C5                                                       
             PM PM PM PM PM PM        PM PM PM PM PM PM PM     
  E.  S  S S S  S  S  S  S  S     E.  S  S  S  S  S  S  S  E   
-------------------------------|------------------------------|
-------------------------------|------------------------------|
--L----------1--0--0--1--0--0--|------1--0--0--1--0--0--0-----|
------5------------------------|------------------------------|
------3------------------------|------------------------------|
-------------------------------|------------------------------|


  C5                                      A#5                                   
  E.  E.  Q    S S    E  S E  S Q.        E.  E.  Q    S S    E  S S E  Q.      
-------------------|-------------------|-------------------|-------------------|
--8---6------------|-------------------|--9---8---6--------|--6----------------|
----------8----5-7-|--8--7-5----5------|---------------7-8-|-----8-7-5--7------|
-------------------|----------8--------|-------------------|-------------------|
-------------------|-------------------|-------------------|-------------------|
-------------------|-------------------|-------------------|-------------------|


  G#5                               D#5                G5               
  Q.     Q.        Q.     Q.        E.  E.  E.  E.     E.  E.  E.  E.   
----------------|----------------|------------------|------------------|
--8------6------|----------------|------------------|------------------|
----------------|--8-------------|--8---7---5-------|----------5-------|
----------------|---------6------|--------------8---|--5---6-------8---|
----------------|----------------|------------------|------------------|
----------------|----------------|------------------|------------------|


  C5                                      A#5                                   
  E.  E.  Q    S S    E  S E  S Q.        E.  E.  Q    S S    E  S S E  Q.      
-------------------|-------------------|-------------------|-------------------|
--8---6------------|-------------------|--9---8---6--------|--6----------------|
----------8----5-7-|--8--7-5----5------|---------------7-8-|-----8-7-5--7------|
-------------------|----------8--------|-------------------|-------------------|
-------------------|-------------------|-------------------|-------------------|
-------------------|-------------------|-------------------|-------------------|


  G#5                               D#5                G5               
  Q.     Q.        Q.     Q.        E.  E.  E.  E.     E.  E.  E.  E.   
----------------|----------------|------------------|------------------|
--8------6------|----------------|------------------|------------------|
----------------|--8------5------|--8---7---5---3---|--0---1---5---3---|
----------------|----------------|------------------|------------------|
----------------|----------------|------------------|------------------|
----------------|----------------|------------------|------------------|


  G#5                              F5           C5                    
  E.  S S S E.  S S S    E.  S S S E.  S S S    S  S S E.  S S S E.   
----------------------|----------------------|-----------------------|
----------------------|----------------------|-----------------------|
----------------5-----|----------------------|-----------------------|
--6---8-6-5-6-----8-5-|--6---8-6-5-----------|-----------------------|
----------------------|------------8---8-6-5-|--3--3-3-6---3-3-3-5---|
----------------------|----------------------|-----------------------|


                             G#5                              F5         
  S S S S S S S S S S S S    E.  S S S E.  S S S    E.  S S S E.  S S S  
--------------------------|----------------------|----------------------|
--------------------------|----------------------|----------------------|
--------------------------|----------------5-----|----------------------|
--------5-0-0-3-0-0-1-0-0-|--6---8-6-5-6-----8-5-|--6---8-6-5-----------|
--3-3-3-------------------|----------------------|------------8---8-6-5-|
--------------------------|----------------------|----------------------|


   G5                                         C5          A#5   
   H.                 S S S  S S S E.  E.     E.  E.  E.  E.    
------------------|------------------------|-------------------|
--13b-------------|--11-9-8----------------|-------------------|
--15b~------------|---------10-8-7-8---7---|--5---7---8--------|
------------------|------------------------|--------------8~---|
------------------|------------------------|-------------------|
------------------|------------------------|-------------------|


              G#5                 G5                      G#5         G5    
  E.  E.  E.  E.      E.  E.  E.  E.     Q.     Q.        E.  E.  E.  E.    
-------------------|------------------|----------------|-------------------|
-------------------|--------------6---|---------8------|--9---8---6--------|
------7---8--------|------7---8-------|----------------|--------------7~---|
--------------6~---|------------------|----------------|-------------------|
-------------------|------------------|----------------|-------------------|
-------------------|------------------|----------------|-------------------|


              D#5                G5                 C5     
  E.  E.  E.  E.     E.  E.  E.  E.      Q.     E.  S  E   
------------------|-------------------|-------------------|
------------------|-------------------|-------------------|
------8---7---3---|------5---7---5~---|---------4---------|
------------------|-------------------|-------------5-----|
------------------|-------------------|-------------3-----|
------------------|-------------------|-------------------|


  C5                      G#5           A#5              C5                    
  S  S S E.  S S S E.     S   S S S S S S   S S S S S    S  S S E.  S S S E.   
-----------------------|------------------------------|-----------------------|
-----------------------|------------------------------|-----------------------|
-----------------------|------------------------------|-----------------------|
-----------------------|----------------3---5-3-------|-----------------------|
--3--3-3-6---3-3-3-5---|--3---------3-6---------6-5-3-|--3--3-3-6---3-3-3-5---|
-----------------------|------6-4-6-------------------|-----------------------|


  G#5           A#5              C5                    
  S   S S S S S S   S S S S S    S  S S E.  S S S E.   
------------------------------|-----------------------|
------------------------------|-----------------------|
------------------------------|-----------------------|
----------------3---5-3-------|-----------------------|
--3---------3-6---------6-5-3-|--3--3-3-6---3-3-3-5---|
------6-4-6-------------------|-----------------------|


  G#5           A#5              C5                    
  S   S S S S S S   S S S S S    S  S S E.  S S S E.   
------------------------------|-----------------------|
------------------------------|-----------------------|
------------------------------|-----------------------|
----------------3---5-3-------|-----------------------|
--3---------3-6---------6-5-3-|--3--3-3-6---3-3-3-5---|
------6-4-6-------------------|-----------------------|


  G#5           A#5              C5                                         
  S   S S S S S S   S S S S S    S  H        E  S                           
------------------------------|-------------------|----|----|----|----|----|
------------------------------|-------------------|----|----|----|----|----|
------------------------------|-------------------|----|----|----|----|----|
----------------3---5-3-------|--5----------------|----|----|----|----|----|
--3---------3-6---------6-5-3-|--3----------------|----|----|----|----|----|
------6-4-6-------------------|-------------------|----|----|----|----|----|


----|----|----|----|----|----|----|----||
----|----|----|----|----|----|----|----||
----|----|----|----|----|----|----|----||
----|----|----|----|----|----|----|----||
----|----|----|----|----|----|----|----||
----|----|----|----|----|----|----|----||




Duration Legend
---------------
W - whole
H - half
Q - quarter
E - 8th
S - 16th
T - 32nd
X - 64th
. - note dotted
|-n-|  - n-tuplets


Tablature Legend
----------------
L - tied note
x - dead note
g - grace note
(n) - ghost note
> - accentuded note
NH - natural harmonic
AH - artificial harmonic
TH - tapped harmonic
SH - semi harmonic
PH - pitch harmonic
h - hammer on
p - pull off
b - bend
br - bendRelease
pb - preBend
pbr - preBendRelease
brb - bendReleaseBend
\n/ - tremolo bar dip
\n - tremolo bar dive
-/n - tremolo bar Release up
/n\ - tremolo bar inverted dip
/n - tremolo bar return
-\n - tremolo bar Release down
S - shift slide
s - legato slide
/ -  slide into from below or out of upwards
\ -  slide into from above or out of downwards
~ - vibrato
W - wide vibrato
tr - trill
TP - tremolo picking
T - tapping
S - slap
P - pop
< - fade in
^ - brush up
v - brush down
Добавлено: 18.04.2016
Другие материалы по этой песне:
  • Аккорды и текст

Страница создана 18.04.2016
http://primanota.ru/misc-unsigned-bands/heavy-metal-rhythm-chords.htm
Привет, Гость.
Предлагаем пройти революционный курс по гитаре.
Подарок от PrimaNota.Ru, забирай!