PrimaNota.ru - самый крупный в мире бесплатный архив песенных текстов, аккордов, табулатур и нот


Misc Unsigned Bands - Iva Bittova Vladimir Vaclavek - Sto Let - таба

Регистрация Запомнить меня
Войти через:  Facebook Google Twitter Vk Yandex Mail.ru

Misc Unsigned Bands - Iva Bittova Vladimir Vaclavek - Sto Let - таба

Печатать
Просмотров: 124
Уроки эстрадного вокала в Санкт-Петербурге
-------------------------------------------------------------------------------
                             Sto Iet - Iva Bittova & Vladimir Vaclavek
-------------------------------------------------------------------------------
Tabbed by:injera
E-mail:

Tuning: EADGBE

The song consist in one main part being played over and over again:

e|---------------------------------------------------------------------------|
B|---------------------------------------------------------------------------|
G|--5-----7-----9--------10---9----7-----0-----------------------------------|
D|--7-----9-----10-------12---10---9-----0-----------------------------------|
A|-0-----7-----8-------10----8----7----3-------------------------------------|
E|---------------------------------------------------------------------------|

Toward the end, there's this outro being played a few times:

e|---------------------------------------------------------------------------|
B|---------------------------------------------------------------------------|
G|---------------------------------------------------------------------------|
D|---------------------------------------------------------------------------|
A|----0-0-3-2----0-0-3-2----0-0-3-2---5-3-2----------------------------------|
E|--3----------3----------3---------3----------------------------------------|

Listen to the song to get the rythm. In the first part Vaclavek tends to mute
the string right after he pluck them.

this tab is based on this video: https://www.youtube.com/watch?v=y-jUAIs89iE

************************************

| /   slide up
| \   slide down
| h   hammer-on
| p   pull-off
| ~   vibrato
| +   harmonic
| x   Mute note
| b   Bend
| pb  Pre-bend
| br  Bend release
| pbr Pre-bend release
| brb Bend release bend

************************************
Добавлено: 22.04.2016
Другие материалы по этой песне:
  • Аккорды и текст

Страница создана 22.04.2016
http://primanota.ru/misc-unsigned-bands/iva-bittova-vladimir-vaclavek-sto-let-chords.htm
Привет, Гость.
Предлагаем пройти революционный курс по гитаре.
Подарок от PrimaNota.Ru, забирай!