PrimaNota.ru - самый крупный в мире бесплатный архив песенных текстов, аккордов, табулатур и нот


Misc Unsigned Bands - Jason James - The Hardest Part - таба

Регистрация Запомнить меня
Войти через:  Facebook Google Twitter Vk Yandex Mail.ru

Misc Unsigned Bands - Jason James - The Hardest Part - таба

Печатать
Просмотров: 69
-------------------------------------------------------------------------------
                 the hardest part - jason james
-------------------------------------------------------------------------------
Tabbed by: typingm0nk

Tuning: Eb with Capo +1


[Intro/Verse]
e|--------------------------------|--------------------------------|
B|----2---3-------3p2-------------|--------------------------------|
G|----------------------2---------|----2---4---0-------------------|
D|--------------------------------|----------------2-0-------------|
A|2-2---------2-2-------------2---|----------------0-0---4-----0---|
E|------------------------------0-|3-3---------------------------0-|

[Pre Chorus]
 
e|--------------------------------|--------------------------------|
B|--------------------------------|--------------------------------|
G|--------0-------------------2---|--------0-------------------2---|
D|----4-----4---------0-----2---2-|----4-----4---------0-----2---2-|
A|2-----2-------2---2---2-0-------|2-----2-------2---2---2-0-------|
E|----------------3---------------|----------------3---------------|

[Chorus]
e|--------------------------------|--------------------------------|
B|--------------------------------|--------------------------------|
G|--------------------------------|--------------------------------|
D|4---4---4---4---4---4---4---4---|4---4---4---4---4---4---4---4---|
A|2---2---2---2---2---2---2---2---|0---0---0---0---0---0---0---0---|
E|--------------------------------|--------------------------------|

e|--------------------------------|--------------------------------|
B|--------------------------------|--------------------------------|
G|--------------------------------|--------------------------------|
D|2---2---2---2---2---2---2---2---|--------------------------------|
A|--------------------------------|2---2---2---0---0---0---0---0---|
E|4---4---4---4---4---4---4---4---|0---0---0---2---2---2---2---2---|


[Verse 1]
You're boxed in the corner, won't you tell me no lies.
Words of wisdom for a change, I just split my last five.
I'll soon be broken both ways, I wish I were a child.
But nothing last forever, I guess I don't decide.
Do you want to cry? Suck it up? Sittin' pause for a while.
A stand of smoke and disease. Thank you! Please, tell me why!
I need a rock that I push and I hope that it rolls. 
I need some warmth, so i won't shiver, still there's comfort and cold.

[Pre Chorus]
I know
I know

[Chorus]
I've often heard them saying it's darkest before the dawn.
But the hardest part of staying put is moving on
I've often heard them saying it's darkest before the dawn.
But the hardest part of staying put is moving on
I've often heard them saying it's darkest before the dawn.
But the hardest part of staying put is moving on
When you think you've got it sorted, there's always something involved.
And the hardest part of staying put is moving on.

[Verse 2]
Here we go, brand new day, I think i go back to bed.
My stomach's calling out, it's been days since I've ate.
Sounds like a threat, a reminder of the problems to come.
Eyes closed, blocking memories. What have I done?
You had your chump!
When I'm tired I'm not easy to please.
One plus one makes a life but three can murder a dream.
You do the math and win the cage, an umbrella for tears.
A smile can be contagious when I question the feared.

[Pre Chorus]
[Chorus]

[Verse 3]
So now what? Closing time. I guess, I walk on alone.
Where the breeze that can/could freeze people, cuts on the bones.
There's a siren in the distance, gives a warning, a flash.
Smoke from a school burning young men to ash.
As we danced round the fire like the natives of earth.
Some bath in the rain and explain how it works.
No, I have to form a gesture that keeps a scull, as mine, warm.
And the sun doesn't rise and it doesn't move on.

[Pre Chorus]
[Chorus]
Добавлено: 22.04.2016
Другие материалы по этой песне:
  • Аккорды и текст

Страница создана 22.04.2016
http://primanota.ru/misc-unsigned-bands/jason-james-hardest-part-chords.htm
Привет, Гость.
Предлагаем пройти революционный курс по гитаре.
Подарок от PrimaNota.Ru, забирай!