PrimaNota.ru - самый крупный в мире бесплатный архив песенных текстов, аккордов, табулатур и нот


Misc Unsigned Bands - Good Kid - Nomu - таба

Регистрация Запомнить меня
Войти через:  Facebook Google Twitter Vk Yandex Mail.ru

Misc Unsigned Bands - Good Kid - Nomu - таба

Печатать
Просмотров: 68
-------------------------------------------------------------------------------
                             NOMU - Good Kid
-------------------------------------------------------------------------------
Tabbed by: Jacob Tsafatinos
E-mail: Toronto.GoodKid@gmail.com

Tuning:standard

Guitar 1: Jacob
intro
   E                 D#7             Abminor7          
e|------------------------------------------------------------------------------------------------------|
B|-9-9-9-9-9-9-9-9--7-7-7-7-7-7-7-7--12-12-12-12-12-12-12-12-12-12-12-12-12-12-12-12--------------------|
G|-9-9-9-9-9-9-9-9--8-8-8-8-8-8-8-8--11-11-13-13-13-13-11-11-13-13-13-13-13-11-11-11--------------------| x2
D|-9-9-9-9-9-9-9-9--8-8-8-8-8-8-8-8--13-13-13-13-13-13-13-13-13-13-13-13-13-13-13-13--------------------|
A|-7-7-7-7-7-7-7-7--6-6-6-6-6-6-6-6--11-11-11-11-11-11-11-11-11-11-11-11-11-11-11-11--------------------|
E|------------------------------------------------------------------------------------------------------|

Verse 1
   E                D#7              Abminor7
e|---------------------------------------------------------------------------|
B|-9----------------7----------------12--------------------------------------|
G|-9----------------8----------------11--------------------------------------|
D|-9----------------8----------------13--------------------------------------| x2
A|-7----------------9----------------11--------------------------------------|
E|---------------------------------------------------------------------------|

e|---------------------------------------------------------------------------|
B|---------------------------------------------------------------------------|
G|---------------------------------------------------------------------------|
D|--9----8------13-13---9----8-----13--13-13---------------------------------| x2
A|--7----9------11-11---7----9-----11--11-11---------------------------------|
E|---------------------------------------------------------------------------|

Chorus
   E                D#7              C#7
e|---------------------------------------------------------------------------|
B|-9-9-9-9-9-9-9-9--7-7-7-7-7-7-7-7--5-5-5-5-5-5-5-5-5-5-5-5-5-5-5-5---------|
G|-9-9-9-9-9-9-9-9--8-8-8-8-8-8-8-8--6-6-6-6-6-6-6-6-6-6-6-6-6-6-6-6---------|
D|-9-9-9-9-9-9-9-9--8-8-8-8-8-8-8-8--6-6-6-6-6-6-6-6-6-6-6-6-6-6-6-6---------| x4
A|-7-7-7-7-7-7-7-7--6-6-6-6-6-6-6-6--4-4-4-4-4-4-4-4-4-4-4-4-4-4-4-4---------|
E|---------------------------------------------------------------------------|

Verse 2
e|---------------------------------------------------------------------------|
B|---------------------------------------------------------------------------|
G|---------------------------------------------------------------------------|
D|----8-6-8-6-8-6-8---8-6-8-6-8-6-8---8-6-8-6-8-6-8---8-6-8---8-6-8----------| x2
A|--7---------------7---------------7---------------7-------7----------------|
E|---------------------------------------------------------------------------|

e|---------------------------------------------------------------------------|
B|---------------------------------------------------------------------------|
G|---------------------------------------------------------------------------|
D|--9----8------13-13---9----8-----13--13-13---------------------------------| x2
A|--7----9------11-11---7----9-----11--11-11---------------------------------|
E|---------------------------------------------------------------------------|

Chorus

Bridge
e|---------------------------------------------------------------------------------------------------|
B|---------------------------------------------------------------------------------------------------|
G|-----8-8-8-------8-8-8--------8-8-8-------8-8-8-------8-8-8-------8-8-8-------8-8-8-------8-8-8----|
D|-9-9-8-8-8-6-6-6-8-8-8--9-9-9-8-8-8-6-6-6-8-8-8-9-9-9-8-8-8-6-6-6-8-8-8-9-9-9-8-8-8-6-6-6-8-8-8----|
A|-9-9-6-6-6-6-6-6-6-6-6--9-9-9-6-6-6-6-6-6-6-6-6-9-9-9-6-6-6-6-6-6-6-6-6-9-9-9-6-6-6-6-6-6-6-6-6----|
E|-7-7-------4-4-4--------7-7-7-------4-4-4-------7-7-7-------4-4-4-------7-7-7-------4-4-4----------|

Chorus

Outro
e|-----------------------------------------------------------------------------------------|
B|-9-9-9-9-9-9--7\12-12-12-12-12-12-12--11-11-11-11-11-11-11-11-11-11-11-11-11-11-11-11----|
G|-9-9-9-9-9-9--6\11-11-11-11-11-11-11--11-11-11-11-11-11-11-11-11-11-11-11-11-11-11-11----|
D|-9-9-9-9-9-9--8\13-13-13-13-13-13-13--11-11-11-11-11-11-11-11-11-11-11-11-11-11-11-11----| x2
A|-7-7-7-7-7-7--6\11-11-11-11-11-11-11--9--9--9--9--9--9--9--9--9--9--9--9--9--9--9--9-----|
E|-----------------------------------------------------------------------------------------|

e|---------------------------------------------------------------------------------------------------|
B|-16-16-16-16-16-16-16-16--12-12-12-12-12-12-12-12--12-12-12-12-12-12-12-12-12-12-12-12-12-12-12-12-|
G|-16-16-16-16-16-16-16-16--11-11-11-11-11-11-11-11--12-12-12-12-12-12-12-12-12-12-12-12-12-12-12-12-|
D|-16-16-16-16-16-16-16-16--13-13-13-13-13-13-13-13--12-12-12-12-12-12-12-12-12-12-12-12-12-12-12-12-| x2
A|-14-14-14-14-14-14-14-14--11-11-11-11-11-11-11-11--10-10-10-10-10-10-10-10-10-10-10-10-10-10-10-10-|
E|---------------------------------------------------------------------------------------------------|

e|-----------------------------------------------------------------------------------------|
B|-9-9-9-9-9-9--7\12-12-12-12-12-12-12--11-11-11-11-11-11-11-11-11-11-11-11-11-11-11-11----|
G|-9-9-9-9-9-9--6\11-11-11-11-11-11-11--11-11-11-11-11-11-11-11-11-11-11-11-11-11-11-11----|
D|-9-9-9-9-9-9--8\13-13-13-13-13-13-13--11-11-11-11-11-11-11-11-11-11-11-11-11-11-11-11----|
A|-7-7-7-7-7-7--6\11-11-11-11-11-11-11--9--9--9--9--9--9--9--9--9--9--9--9--9--9--9--9-----|
E|-----------------------------------------------------------------------------------------|

Guitar 2: David

Main Lead
e|---------------------------------------------------------------------------|
B|---------------------------------------------------------------------------|
G|---------------------------------------------------------------------------|
D|---------------------------------------------------------------------------|
A|----------------12-9\12----12--9\12----12-9\12----12-9\12------------------|
E|-14-12-11-12-11---------11---------11---------11---------11----------------|



************************************

| /   slide up
| \   slide down
| h   hammer-on
| p   pull-off
| ~   vibrato
| +   harmonic
| x   Mute note
| b   Bend
| pb  Pre-bend
| br  Bend release
| pbr Pre-bend release
| brb Bend release bend

************************************
Добавлено: 18.04.2016
Другие материалы по этой песне:
  • Аккорды и текст

Страница создана 18.04.2016
http://primanota.ru/misc-unsigned-bands/good-kid-nomu-chords.htm
Привет, Гость.
Предлагаем пройти революционный курс по гитаре.
Подарок от PrimaNota.Ru, забирай!