PrimaNota.ru - самый крупный в мире бесплатный архив песенных текстов, аккордов, табулатур и нот


Misc Unsigned Bands - Go Ask Alice - Phantoms - таба, видео

Регистрация Запомнить меня
Войти через:  Facebook Google Twitter Vk Yandex Mail.ru

Misc Unsigned Bands - Go Ask Alice - Phantoms - таба, видео

Печатать
Просмотров: 103
Уроки эстрадного вокала в Санкт-Петербурге
-------------------------------------------------------------------------------
                           Phantoms Solo - Go Ask Alice
-------------------------------------------------------------------------------
F minor
147bpm
Tabbed by Ryker Blade
Tuning: Drop C

D|----------6h10p6----------6h10p6-----6/13p10-------10h11p10------10h15p10--|
A|--------8-------8-------8-------8--8--------11--11---------11--11----------|
F|-------7---------7----7----------7------------10-------------10------------|
C|-----8------------8--8-----------------------------------------------------|
G|-5h10--------------10------------------------------------------------------|
C|---------------------------------------------------------------------------|

D|--------10h11p10------10/15p11--------11h15\-------------------------------|
A|-11--11---------11--11--------13---13--------------------------------------|
F|---10-------------10------------12------------8h12p8---------8h12\---------|
C|-----------------------------------------------------10---10---------------| 
G|-------------------------------------------------------10------------------|
E|---------------------------------------------------------------------------|

D|---------------------------------------------------------------------------|
A|---------------------------------------------------------------------------|
F|---------------------------------------7~~~/10-9-10-----10b12~~10-9-9t10p9-|
C|--1h5p1------1h5\---------------5-7-8-----------------x--------------------|
G|-------3---3---------------5-6-8--------------------x----------------------|
C|---------5------------5-7-8------------------------------------------------|

D|---------------------------------------------------------------------------|
A|---------------------------------------------------------------------------|
F|-/7+~~~----------------------------------------8----8-10-8-10-12-10-12-----|
C|-------------------------8--8-10-8-10-12-10-12---12------------------------|
G|--------10-8-10-12-10-12--12-----------------------------------------------|
C|---------------------------------------------------------------------------|

D|-----------------------------10---------------10--10--------------10-------|
A|--10----10-11-10-11-13-11-13---13-11-10-11-13---13--13-11-10-11-13--13-11--|
F|-----12--------------------------------------------------------------------|
C|---------------------------------------------------------------------------|
G|---------------------------------------------------------------------------|
C|---------------------------------------------------------------------------|

D|----------13-15-11-13p11--11-----------------------------------------------|
A|-10---------------------15--13-15-11-13p11---11----------------------------|
F|----12~~~---------------------------------14----12-14-10-12p10---10--------|
C|--------------------------------------------------------------13----12-13--|
G|---------------------------------------------------------------------------|
C|---------------------------------------------------------------------------|

D|------------------/17-15-17b18~~~------------------------------------------|
A|---------------------------------------------------------------------------|
F|---------------------------------------------------------------------------|
C|-12-10-12-10---------------------------------------------------------------|
G|------------13-------------------------------------------------------------|
C|---------------------------------------------------------------------------|

************************************

| /   slide up
| \   slide down
| h   hammer-on
| p   pull-off
| ~   vibrato
| +   harmonic
| x   Mute note
| b   Bend
| pb  Pre-bend
| br  Bend release
| pbr Pre-bend release
| brb Bend release bend

************************************
Добавлено: 18.04.2016
Другие материалы по этой песне:
  • Аккорды и текст

Страница создана 18.04.2016
http://primanota.ru/misc-unsigned-bands/go-ask-alice-phantoms-chords.htm
Привет, Гость.
Предлагаем пройти революционный курс по гитаре.
Подарок от PrimaNota.Ru, забирай!