PrimaNota.ru - самый крупный в мире бесплатный архив песенных текстов, аккордов, табулатур и нот


Misc Unsigned Bands - George Duffield - Stand Up Stand Up For Jesus - таба

Регистрация Запомнить меня
Войти через:  Facebook Google Twitter Vk Yandex Mail.ru

Misc Unsigned Bands - George Duffield - Stand Up Stand Up For Jesus - таба

Печатать
Просмотров: 61
-------------------------------------------------------------------------------
                   stand up stand up for Jesus- George duffield
-------------------------------------------------------------------------------
Tabbed by:
E-mail:
Key of Ab
Tuning:E-A-D-G-B-E

e|---------------------------------------------------------------------------|
B|----------------1----------------------------1-----------------------1-----|
G|-------1----1-------1---1----1-------1----3-------3---------1----1-----1---|
D|---1------------1---1---3--3-3---1---1----1--1----1----1-------------1-1---|
A|---3---3----3--------------4--------------------------------3----3---------|
E|---------------------------------------------------------------------------|
   stand up stand up for Jesus ye soldiers of the cross lift high the royal 
e|---------------------------------------------------------------------------|
B|---------------------1-----------------------------1--1-1--1---3-1---------|
G|--1-----1--------1------3---1----------3--3--1-3---------------------------|
D|--3-3---3---1--------1--0---------1----1--1--1-1---1--1-1--1---1-1---3-----|
A|----4------------3----------3----------------------------------------------|
E|---------------------------------------------------------------------------|
   banner it must not suffer loss from victory unto victory His army shall 
e|---------------------------------------------------------------------------|
B|---------------------1--------------------------------1--------------------|
G|--1---0--------1--1------1---1---------1----------1-------3--1-------------|
D|--1--------1---------1---1---3-3-------3-----1--------1---1----------------|
A|---------------3--3------------4------------------3----------3-------------|
E|---------------------------------------------------------------------------|
   He lead till every foe is vanquished and Christ is Lord indeed



************************************

| /   slide up
| \   slide down
| h   hammer-on
| p   pull-off
| ~   vibrato
| +   harmonic
| x   Mute note
| b   Bend
| pb  Pre-bend
| br  Bend release
| pbr Pre-bend release
| brb Bend release bend

************************************
Добавлено: 17.10.2015
Другие материалы по этой песне:
  • Аккорды и текст

Страница создана 17.10.2015
http://primanota.ru/misc-unsigned-bands/george-duffield-stand-up-stand-up-for-jesus-chords.htm
Привет, Гость.
Предлагаем пройти революционный курс по гитаре.
Подарок от PrimaNota.Ru, забирай!