PrimaNota.ru - самый крупный в мире бесплатный архив песенных текстов, аккордов, табулатур и нот


Misc Unsigned Bands - Glassy Sky - таба, видео

Регистрация Запомнить меня
Войти через:  Facebook Google Twitter Vk Yandex Mail.ru

Misc Unsigned Bands - Glassy Sky - таба, видео

Печатать
Просмотров: 274
-------------------------------------------------------------------------------
                             SONG NAME - Band Name
-------------------------------------------------------------------------------
Tabbed by:
E-mail:

Tuning:

e|---------------------------------------------------------------------------|
B|---------------------------------------------------------------------------|
G|---------------------------------------------------------------------------|
D|---------------------------------------------------------------------------|
A|---------------------------------------------------------------------------|
E|---------------------------------------------------------------------------|

e|---------2--2---2------2-----0---------------------------------------------|
B|---------0-----------------------4------2----4----------4-----------4------|
G|---------1----------------------------------------------4-----------4------|
D|---------------------------------------------------------------------------|
A|---------------------------------------------------------------------------|
E|--0-----------------------------------------------4-----------4------------|

e|---------2--2---2------2-----0-----------------------2-----------2---------|
B|---------0-----------------------4------2----4----------4-----------4------|
G|---------1----------------------------------------------4-----------4------|
D|---------------------------------------------------------------------------|
A|---------------------------------------------------------------------------|
E|--0-----------------------------------------------4-----------4------------|

e|---------2--2---2-----4----------------------------------------------------|
B|---------0---------------4------4----2----4---------4-----------4---------2|
G|---------1------------------------------------------4-----------4----4-----|
D|---------------------------------------------------------------------------|
A|---------------------------------------------------------------------------|
E|--0--------------------------------------------4----------4----------------|

e|----------------------------------------4----------------------------------|
B|------4-------------------0-----7------------------------------------------|
G|---------1------------3--------------------4-------------------------------|
D|----------------------2--------------------4-------------------------------|
A|------------------------------------6------6-------------------------------|
E|--0--------------0-------------4-----------4-------------------------------|

e|---------------------------------------------------------------------------|
B|---------------------------------------------------------------------------|
G|---------------------------------------------------------------------------|
D|---------------------------------------------------------------------------|
A|---------------------------------------------------------------------------|
E|---------------------------------------------------------------------------|

e|---------------------------------------------------------------------------|
B|---------------------------------------------------------------------------|
G|---------------------------------------------------------------------------|
D|---------------------------------------------------------------------------|
A|---------------------------------------------------------------------------|
E|---------------------------------------------------------------------------|

e|---------------------------------------------------------------------------|
B|---------------------------------------------------------------------------|
G|---------------------------------------------------------------------------|
D|---------------------------------------------------------------------------|
A|---------------------------------------------------------------------------|
E|---------------------------------------------------------------------------|


************************************

| /   slide up
| \   slide down
| h   hammer-on
| p   pull-off
| ~   vibrato
| +   harmonic
| x   Mute note
| b   Bend
| pb  Pre-bend
| br  Bend release
| pbr Pre-bend release
| brb Bend release bend

************************************
Добавлено: 17.10.2015
Другие материалы по этой песне:
  • Аккорды и текст

Страница создана 17.10.2015
http://primanota.ru/misc-unsigned-bands/glassy-sky-chords.htm
Привет, Гость.
Предлагаем пройти революционный курс по гитаре.
Подарок от PrimaNota.Ru, забирай!