PrimaNota.ru - самый крупный в мире бесплатный архив песенных текстов, аккордов, табулатур и нот


Misc Unsigned Bands - George Barnett - Cassi - таба

Регистрация Запомнить меня
Войти через:  Facebook Google Twitter Vk Yandex Mail.ru

Misc Unsigned Bands - George Barnett - Cassi - таба

Печатать
Просмотров: 33
Artist: George Barnett
Song: Cassi
Album: 17 Days 
Tabbed by: gustavoaraujo999@hotmail.com

0:00 keyboard
e|-------------------------------------|
B|-------------------------------------|
G|-------------------------------------|
D|-------------------------------------|
A|------------3-5----5-3-8---(5-3--)---|
E|-3-5-6----6----------------(----1)---|

0:00 guitar
e|-13-x-x-13-13-13-13-x-x-x-13-13-13-x-x-x-1313131313-x-11-x-13--|
B|---------------------------------------------------------------|
G|---------------------------------------------------------------|
D|---------------------------------------------------------------|
A|---------------------------------------------------------------|
E|---------------------------------------------------------------|

0:54 guitar
e|-13---------8-10--------13------10-8---------|
B|----11---11----------------13--------11-10---|
G|---------------------------------------------|
D|---------------------------------------------|
A|---------------------------------------------|
E|---------------------------------------------|

1:11 violin
e|---------------------------------------------------------------|
B|---------------------------------------------------------------|
G|---------5---5-6-7~--5--7~-------------------------------------|
D|-7-5-7-8---8---------5--5--------------------------------------|
A|---------------------------------------------------------------|
E|---------------------------------------------------------------|
Добавлено: 18.04.2016
Другие материалы по этой песне:
  • Аккорды и текст

Страница создана 18.04.2016
http://primanota.ru/misc-unsigned-bands/george-barnett-cassi-chords.htm
Привет, Гость.
Предлагаем пройти революционный курс по гитаре.
Подарок от PrimaNota.Ru, забирай!