PrimaNota.ru - самый крупный в мире бесплатный архив песенных текстов, аккордов, табулатур и нот


Misc Unsigned Bands - Geroge Barnett - Abraham - таба

Регистрация Запомнить меня
Войти через:  Facebook Google Twitter Vk Yandex Mail.ru

Misc Unsigned Bands - Geroge Barnett - Abraham - таба

Печатать
Просмотров: 36
Artist: George Barnett
Song: Abraham
Album: 17 Days
Tabbed by: gustavoaraujo999@hotmail.com
Tuning: Standard (EADGBE)

0:00
e|-12---------------------------|
B|------13-12-------------------|
G|------------14-12-------------|
D|------------------12-14-------|
A|------------------------------|
E|------------------------------|

0:21 fading in
e|-7-7---12---------------------------------------------|---12*---------|
B|-8-8---12---------------------------------------------|---------------|
G|-9-9---12---------------------------------------------|---------------|
D|------------------------------------------------------|---------------|
A|------------------------------------------------------|---------------|
E|------------------------------------------------------|-------0/12\0--|

1:15
e|-----------------------------------------|
B|-----------------------------------------|
G|-----------------------------------------|
D|-----6--------6------5--------5-4---5-4--|
A|-7-7----7-7-7----------------------------|
E|-----------------8-8----8-8-8------------|

e|------------------------------------------|
B|------------------------------------------|
G|------------------------------------------|
D|-----6------6h7p6------5-------5-4--5-4---|
A|-7-7----7-7-------------------------------|
E|-------------------8-8---8-8-8------------|

e|-----------------------------------------|
B|-----------------------------------------|
G|-----------------------------------------|
D|-----6--------6------5--------5-4---5-4--|
A|-7-7----7-7-7----------------------------|
E|-----------------8-8----8-8-8------------|

e|------------------------------------------|
B|------------------------------------------|
G|------------------------------------------|
D|-----6------6h7p6------5-------5-4--5-4---|
A|-7-7----7-7-------------------------------|
E|-------------------8-8---8-8-8------------|

1:55
e|------------------------------------------|
B|------------------------------------------|
G|------------------------------------------|
D|-----------------------5-------5-4--5-4---|
A|------------------------------------------|
E|-------------------8-8---8-8-8------------|

e|-----------------------------------------|
B|-----------------------------------------|
G|-----------------------------------------|
D|-----6--------6------5--------5-4---5-4--|
A|-7-7----7-7-7----------------------------|
E|-----------------8-8----8-8-8------------|

e|------------------------------------------|
B|------------------------------------------|
G|------------------------------------------|
D|-----6------6h7p6------5-------5-4--5-4---|
A|-7-7----7-7-------------------------------|
E|-------------------8-8---8-8-8------------|

2/12\0

2:52
e|-----------------------------|
B|-----------------------------|
G|------------------------[x3]-|
D|-----------------------------|
A|-7-7p5-5---------------------|
E|---------x-5---5-5-6-7-0-----|

e|-----------------------------|
B|-----------------------------|
G|-----------------------------|
D|-----------------------------|
A|-7-7-5-7-x-/12\\-------------|
E|-----------------------------|

e|-----------------------------|
B|-----------------------------|
G|------------------------[x3]-|
D|-----------------------------|
A|-7-7p5-5---------------------|
E|---------x-5---5-5-6-7-0-----|

e|-----------------------------|
B|-----------------------------|
G|-----------------------------|
D|---------x-7-5---------------|
A|-7-7-5-7-------7-5-----------|
E|-------------------7-5-3-0---|

e|-----------------------------|
B|-----------------------------|
G|------------------------[x3]-|
D|-----------------------------|
A|-7-7p5-5---------------------|
E|---------x-5---5-5-6-7-0-----|

e|-----------------------------|
B|-----------------------------|
G|-----------------------------|
D|------------------------2----|
A|------------------------2----|
E|-333-22-0-0--333-22-0-0-0----|
Добавлено: 18.04.2016
Другие материалы по этой песне:
  • Аккорды и текст

Страница создана 18.04.2016
http://primanota.ru/misc-unsigned-bands/geroge-barnett-abraham-chords.htm
Привет, Гость.
Предлагаем пройти революционный курс по гитаре.
Подарок от PrimaNota.Ru, забирай!