PrimaNota.ru - самый крупный в мире бесплатный архив песенных текстов, аккордов, табулатур и нот


Misc Unsigned Bands - Gispert Zu Knyphausen - Hey - таба

Регистрация Запомнить меня
Войти через:  Facebook Google Twitter Vk Yandex Mail.ru

Misc Unsigned Bands - Gispert Zu Knyphausen - Hey - таба

Печатать
Просмотров: 36
-------------------------------------------------------------------------------
                            Hey! - Gispert zu Knyphausen
-------------------------------------------------------------------------------
Tabbed by: Guitar Realm
Youtube Channel : Guitar Realm

Tuning: Standard

e|-----------------------------------------------------------------------------|
B|---------1-----------1-----------0-----------0-------------------------------|
G|---------0-----------0-----------0-----------0-------------------------------|
D|------2-----2-----0-----0------2---2------0----0-----------------------------|
A|---3-----------2------------0------------------------------------------------|
E|---------------------------------------3---------3---------------------------|

e|-----------------------------------------------------------------------------|
B|---------1-----------1-----------0-----------0-------------------------------|
G|---------0-----------0-----------0-----------0-------------------------------|
D|------2-----2-----0-----0------2---2------0----0-----------------------------|
A|---3-----------2------------0------------------------------------------------|
E|---------------------------------------3---------3---------------------------|

| /   slide up
| \   slide down
| h   hammer-on
| p   pull-off
| ~   vibrato
| +   harmonic
| x   Mute note
| b   Bend
| pb  Pre-bend
| br  Bend release
| pbr Pre-bend release
| brb Bend release bend
Добавлено: 18.04.2016
Другие материалы по этой песне:
  • Аккорды и текст

Страница создана 18.04.2016
http://primanota.ru/misc-unsigned-bands/gispert-zu-knyphausen-hey-chords.htm
Привет, Гость.
Предлагаем пройти революционный курс по гитаре.
Подарок от PrimaNota.Ru, забирай!