PrimaNota.ru - самый крупный в мире бесплатный архив песенных текстов, аккордов, табулатур и нот


Misc Unsigned Bands - General Bumbler - Flight - таба, видео

Регистрация Запомнить меня
Войти через:  Facebook Google Twitter Vk Yandex Mail.ru

Misc Unsigned Bands - General Bumbler - Flight - таба, видео

Печатать
Просмотров: 34
-------------------------------------------------------------------------------
                                'FLIGHT'
-------------------------------------------------------------------------------

Tuning: Open D

D |-2--------2-----------------2-----------------2-----------------2-------|
A |-------0-----0-----------0-----0-----------0-----0-----------0-----0----|
F#|----2-----------2-----2-----------2-----2-----------2-----2-----------2-|
D |-2-----------------2-----------------2-----------------2----------------|
A |------------------------------------------------------------------------|
D |------------------------------------------------------------------------|

D |-0--------0-----------------0-----------------0-----------------0-----0-|
A |-------0-----0-----------0-----0-----------0-----0-----------0-----0----|
F#|----2-----------2-----2-----------2-----2-----------2-----2-------------|
D |-0-----------------0-----------------0-----------------0----------------|
A |------------------------------------------------------------------------|
D |------------------------------------------------------------------------|

D |-2--------2-----------------2-----------------2-----------------2-------|
A |-------0-----0-----------0-----0-----------0-----0-----------0-----0----|
F#|----2-----------2-----2-----------2-----2-----------2-----2-----------2-|
D |-2-----------------2-----------------2-----------------2----------------|
A |------------------------------------------------------------------------|
D |------------------------------------------------------------------------|

D |-0--------0-----------------0-----------------0-----------------0-----0-|
A |-------0-----0-----------0-----0-----------0-----0-----------0-----0----|
F#|----2-----------2-----2-----------2-----2-----------2-----2-------------|
D |-0-----------------0-----------------0-----------------0----------------|
A |------------------------------------------------------------------------|
D |------------------------------------------------------------------------|

D |-2--------2-----------------2-----------------2-----------------2-------|
A |-------0-----0-----------0-----0-----------0-----0-----------0-----0----|
F#|----2-----------2-----2-----------2-----2-----------2-----2-----------2-|
D |-2-----------------2-----------------2-----------------2----------------|
A |------------------------------------------------------------------------|
D |-2----------------------------------------------------------------------|

D |-0--------0-----------------0-----------------0-----------------0-----0-|
A |-------0-----0-----------0-----0-----------0-----0-----------0-----0----|
F#|----2-----------2-----2-----------2-----2-----------2-----2-------------|
D |-0-----------------0-----------------0-----------------0----------------|
A |------------------------------------------------------------------------|
D |----------0-------------------------------------------------------------|

D |-2--------2-----------------2-----------------2-----------------2-------|
A |-------0-----0-----------0-----0-----------0-----0-----------0-----0----|
F#|----2-----------2-----2-----------2-----2-----------2-----2-----------2-|
D |-2-----------------2-----------------2-----------------2----------------|
A |------------------------------------------------------------------------|
D |-2----------------------------------------------------------------------|

D |-0--------0-----------------0-----------------0-----------------0-----0-|
A |-------0-----0-----------0-----0-----------0-----0-----------0-----0----|
F#|----2-----------2-----2-----------2-----2-----------2-----2-------------|
D |-0-----------------0-----------------0-----------------0----------------|
A |------------------------------------------------------------------------|
D |----------0-------------------------------------------------------------|
Добавлено: 18.04.2016
Другие материалы по этой песне:
  • Аккорды и текст

Страница создана 18.04.2016
http://primanota.ru/misc-unsigned-bands/general-bumbler-flight-chords.htm
Привет, Гость.
Предлагаем пройти революционный курс по гитаре.
Подарок от PrimaNota.Ru, забирай!