PrimaNota.ru - самый крупный в мире бесплатный архив песенных текстов, аккордов, табулатур и нот


Misc Unsigned Bands - Future Fighter - Take It All Away - таба

Регистрация Запомнить меня
Войти через:  Facebook Google Twitter Vk Yandex Mail.ru

Misc Unsigned Bands - Future Fighter - Take It All Away - таба

Печатать
Просмотров: 46
-------------------------------------------------------------------------------
           Take It All Away Rhythm - Future Fighters: Defenders of Tomorrow
-------------------------------------------------------------------------------
Tabbed by: Matthew Fontenot
E-mail: BobtheGuitarist97@gmail.com

Tuning: Half-Step Down
Intro Chorus(Palm Muted)
e|---------------------------------------------------------------------------|
B|---------------------------------------------------------------------------|
G|---------------------------------------------------------------------------|
D|7777777777777777-----------------------------------------------------------|
A|5555555555555555-7777777777777777-9999999999999999-5555555577777777--------|
E|-----------------5555555555555555-7777777777777777-3333333355555555--------|

Intro Chorus Continued

e|---------------------------------------------------------------------------|
B|---------------------------------------------------------------------------|
G|---------------------------------------------------------------------------|
D|7777777777777777-----------------------------------5-------7---------------|
A|5555555555555555-7777777777777777-9999999999999999-5-------7---------------|
E|-----------------5555555555555555-7777777777777777-3-------5---------------|

Main Guitar Rift (x2)

e|---------------------------------------------------------------------------|
B|---------------------------------------------------------------------------|
G|7777777777777777--------------------7777777777777777-----------------------|
D|7777777777777777-99999999-5555-7777-7777777777777777-99999999-5555-7777----|
A|5555555555555555-99999999-5555-7777-5555555555555555-99999999-5555-7777----|
E|-----------------77777777-3333-5555------------------77777777-3333-5555----|

Verse (Same as Main Guitar Rift but palm muted) x4

e|---------------------------------------------------------------------------|
B|---------------------------------------------------------------------------|
G|---------------------------------------------------------------------------|
D|---------------------------------------------------------------------------|
A|---------------------------------------------------------------------------|
E|---------------------------------------------------------------------------|

Pre-Chorus 

e|---------------------------------------------------------------------------|
B|---------------------------------------------------------------------------|
G|---------------------------------------------------------------------------|
D|44444444-22222222-5555555555555555-44444444-22222222-7777777777777777------|
A|44444444-22222222-5555555555555555-44444444-22222222-7777777777777777------|
E|22222222-00000000-3333333333333333-22222222-00000000-5555555555555555------|

Chorus 

e|---------------------------------------------------------------------------|
B|---------------------------------------------------------------------------|
G|7777777777777777-----------------------------------------------------------|
D|7777777777777777-7777777777777777-9999999999999999-55555555-77777777-------|
A|5555555555555555-7777777777777777-9999999999999999-55555555-77777777-------|
E|-----------------5555555555555555-7777777777777777-33333333 55555555-------|

Chorus Continued

e|---------------------------------------------------------------------------|
B|---------------------------------------------------------------------------|
G|7777777777777777-----------------------------------------------------------|
D|7777777777777777-7777777777777777-9999999999999999-2222-4444-5555-7777-----|
A|5555555555555555-7777777777777777-9999999999999999-2222-4444-5555-7777-----|
E|-----------------5555555555555555-7777777777777777-0000-2222-3333-5555-----|

Repeat Main Guitar Rift, Verse, Pre-Chorus, and Chorus


Bridge 

e|---------------------------------------------------------------------------|
B|---------------------------------------------------------------------------|
G|7--7-7--7--7-7-------------------------------------------------------------|
D|7--7-7--7--7-7--7--7-7--7--7-7--4--4-4--4--4-4--5--5-5--5--5-5-------------|
A|5--5-5--5--5-5--7--7-7--7--7-7--4--4-4--4--4-4--5--5-5--5--5-5-------------|
E|----------------5--5-5--5--5-5--2--2-2--2--2-2--3--3-3--3--3-3-------------|

Bridge Continued

e|---------------------------------------------------------------------------|
B|---------------------------------------------------------------------------|
G|7--7-7--7--7-7-------------------------------------------------------------|
D|7--7-7--7--7-7--7--7-7--7--7-7--4444444444444444-55555555-77777777---------|
A|5--5-5--5--5-5--7--7-7--7--7-7--4444444444444444-55555555-77777777---------|
E|----------------5--5-5--5--5-5--2222222222222222-33333333-55555555---------|

Solo

e|---------------------------------------------------------------------------|
B|---------------------------------------------------------------------------|
G|7777777777777777-66666666-44444444-----------------------------------------|
D|7777777777777777-77777777-44444444-2222-4444-5555-7777---------------------|
A|5555555555555555-44444444-22222222-2222-4444-5555-7777---------------------|
E|-----------------------------------0000-2222-3333-5555---------------------|

Solo Continued

e|---------------------------------------------------------------------------|
B|---------------------------------------------------------------------------|
G|7777777777777777-66666666666666666-4444444444444444------------------------|
D|7777777777777777-77777777777777777-4444444444444444-55555555-77777777------|
A|5555555555555555-44444444444444444-2222222222222222-55555555-77777777------|
E|----------------------------------------------------33333333-55555555------|

Solo Continued

e|---------------------------------------------------------------------------|
B|---------------------------------------------------------------------------|
G|7777777777777777-66666666-44444444-----------------------------------------|
D|7777777777777777-77777777-44444444-2222-4444-5555-7777---------------------|
A|5555555555555555-44444444-22222222-2222-4444-5555-7777---------------------|
E|-----------------------------------0000-2222-3333-5555---------------------|

Outro

e|---------------------------------------------------------------------------|
B|---------------------------------------------------------------------------|
G|------------------------------------------------------------7--------------|
D|2222-4444-5555-7777-22-44-55-77-22-44-55-77-----------------7--------------|
A|2222-4444-5555-7777-22-44-55-77-22-44-55-77-----------------5-(Let ring)---|
E|0000-2222-3333-5555-00-22-33-55-00-22-33-55-0-2-3-5-0-2-3-5----------------|



************************************

| /   slide up
| \   slide down
| h   hammer-on
| p   pull-off
| ~   vibrato
| +   harmonic
| x   Mute note
| b   Bend
| pb  Pre-bend
| br  Bend release
| pbr Pre-bend release
| brb Bend release bend

************************************
Добавлено: 18.04.2016
Другие материалы по этой песне:
  • Аккорды и текст

Страница создана 18.04.2016
http://primanota.ru/misc-unsigned-bands/future-fighter-take-it-all-away-chords.htm
Привет, Гость.
Предлагаем пройти революционный курс по гитаре.
Подарок от PrimaNota.Ru, забирай!