PrimaNota.ru - самый крупный в мире бесплатный архив песенных текстов, аккордов, табулатур и нот


Misc Unsigned Bands - Future Fighters - On My Own - таба, видео

Регистрация Запомнить меня
Войти через:  Facebook Google Twitter Vk Yandex Mail.ru

Misc Unsigned Bands - Future Fighters - On My Own - таба, видео

Печатать
Просмотров: 38
-------------------------------------------------------------------------------
                       Future Fighters - Own My Own
-------------------------------------------------------------------------------
Tabbed by:No Fear Matson
E-mail:BobtheGuitarist97@gmail.com

Tuning: Half-Step Down

Intro:
e|---------------------------------------------------------------------------|
B|---------------------------------------------------------------------------|
G|4-4-4-4-4-4-4-4-4-4-4-4-4-4-4-4--------------------------------------------|
D|--------------------------------5-5-5-5-5-5-5-5-4-4-4-4-4-4-4-4------------|
A|2-2-2-2-2-2-2-2-2-2-2-2-2-2-2-2--------------------------------------------|
E|--------------------------------3-3-3-3-3-3-3-3-2-2-2-2-2-2-2-2------------|

Intro: Continued
e|---------------------------------------------------------------------------|
B|---------------------------------------------------------------------------|
G|4-4-4-4-4-4-4-4-4-4-4-4-4-4-4-4--------------------------------------------|
D|--------------------------------5-5-5-5-5-5-5-5-4--------------------------|
A|2-2-2-2-2-2-2-2-2-2-2-2-2-2-2-2--------------------------------------------|
E|--------------------------------3-3-3-3-3-3-3-3-2--------------------------|

Main Guitar Riff: (Play twice)
e|---------------------------------------------------------------------------|
B|---------------------------------------------------------------------------|
G|4-4-4-4-4-4-4-4-4-4-4-4-4-4-4-4--------------------------------------------|
D|4-4-4-4-4-4-4-4-4-4-4-4-4-4-4-4-5-5-5-5-5-5-5-5-4-4-4-4-4-4-4-4-4----------|
A|2-2-2-2-2-2-2-2-2-2-2-2-2-2-2-2-5-5-5-5-5-5-5-5-4-4-4-4-4-4-4-4-4----------|
E|--------------------------------3-3-3-3-3-3-3-3-2-2-2-2-2-2-2-2-2----------|

Transition to Verse:
e|---------------------------------------------------------------------------|
B|---------------------------------------------------------------------------|
G|4-4-----4-4-----4-4-----4-4-----4-4-4-4-4-4-4-4-4--------------------------|
D|4-4-----4-4-----4-4-----4-4-----4-4-4-4-4-4-4-4-4--------------------------|
A|2-2-----2-2-----2-2-----2-2-----2-2-2-2-2-2-2-2-2--------------------------|
E|---------------------------------------------------------------------------|

Verse: Play Four Times (p stands for palm muted)
  p p   p p p   p p p   p p p       p p   p p p     p p   p p p
e|---------------------------------------------------------------------------|
B|---------------------------------------------------------------------------|
G|---------------------------------------------------------------------------|
D|----4-------4-------4-------4-2-0------------------------------------------|
A|2-2---2-2-2---2-2-2---2-2-2-----------2-------2h4-----2-------5-4-5--------|
E|----------------------------------3-3---3-3-3-----2-2---2-2-2--------------|

Pre-Chorus: Play Twice (p stands for palm muted)
                                    p p    pppp   p p p    pppp   p
e|---------------------------------------------------------------------------|
B|---------------------------------------------------------------------------|
G|7-7-7-7-7-7-7-7-7-6-6-6-6--------------------------------------------------|
D|7-7-7-7-7-7-7-7-7-6-6-6-6-7-7-7-7-----9-------9-------9-------9------------|
A|5-5-5-5-5-5-5-5-5-4-4-4-4-7-7-7-7-9-9-9--9999-9-9-9-9-9--9999-9-9----------|
E|--------------------------5-5-5-5-7-7-7--7777-7-7-7-7-7--7777-7-7----------|

Pre-Chrorus: Continued
e|----------------------------------------------------x-x-x-x-x-x-x-x--------|
B|----------------------------------------------------x-x-x-x-x-x-x-x--------|
G|7-7-7-7-7-7-7-7-7-9-9-9-9-9-9-9-9-------------------x-x-x-x-x-x-x-x--------|
D|7-7-7-7-7-7-7-7-7-9-9-9-9-9-9-9-9-5-5-5-5-5-5-5-5-4-x-x-x-x-x-x-x-x--------|
A|5-5-5-5-5-5-5-5-5-7-7-7-7-7-7-7-7-5-5-5-5-5-5-5-5-4-x-x-x-x-x-x-x-x--------|
E|----------------------------------3-3-3-3-3-3-3-3-2-x-x-x-x-x-x-x-x--------|

Chrous: Part 1
e|---------------------------------------------------------------------------|
B|---------------------------------------------------------------------------|
G|4-4-4-4-4-4-4-4-4-4-4-4-4-4-4-4--------------------------------------------|
D|4-4-4-4-4-4-4-4-4-4-4-4-4-4-4-4-5-5-5-5-5-5-5-5-5-5-5-5-5-5-5-5------------|
A|2-2-2-2-2-2-2-2-2-2-2-2-2-2-2-2-5-5-5-5-5-5-5-5-5-5-5-5-5-5-5-5------------|
E|--------------------------------3-3-3-3-3-3-3-3-3-3-3-3-3-3-3-3------------|

Chorus: Part 2 
e|---------------------------------------------------------------------------|
B|---------------------------------------------------------------------------|
G|7-7-7-7-7-7-7-7-7-7-7-7-7-7-7-7--------------------------------------------|
D|7-7-7-7-7-7-7-7-7-7-7-7-7-7-7-7-4-4-4-4-4-4-4-4-4-4-4-4-4-4-4-4------------|
A|5-5-5-5-5-5-5-5-5-5-5-5-5-5-5-5-4-4-4-4-4-4-4-4-4-4-4-4-4-4-4-4------------|
E|--------------------------------2-2-2-2-2-2-2-2-2-2-2-2-2-2-2-2------------|

(Repeat Parts 1 and 2)

Chorus: Part 3 (p stands for palm muted)
  p p    pppp   p p p    pppp   p p p    pppp   p   p p   p p   p
e|---------------------------------------------------------------------------|
B|---------------------------------------------------------------------------|
G|------------------------------------4-------4---7-----7-----7--------------|
D|----5-------5-------7-------7---4-4-4--4444-4-4-7-7-7-7-7-7-7-7------------|
A|5-5-5--5555-5-5-7-7-7--7777-7-7-2-2-2--2222-2-2-5-5-5-5-5-5-5-5------------|
E|3-3-3--3333-3-3-5-5-5--5555-5-5--------------------------------------------|

Chorus: Part 4 (p stands for palm muted)
  p-----------------------------|
e|---------------------------------------------------------------------------|
B|---------------------------------------------------------------------------|
G|---------------------------------------------------------------------------|
D|4-4-4-4-4-4-4-4-4-4-4-4-4-4-4-4-5-5-5-5-5-5-5-5-7-7-7-7-7-7-7-7------------|
A|4-4-4-4-4-4-4-4-4-4-4-4-4-4-4-4-5-5-5-5-5-5-5-5-7-7-7-7-7-7-7-7------------|
E|2-2-2-2-2-2-2-2-2-2-2-2-2-2-2-2-3-3-3-3-3-3-3-3-5-5-5-5-5-5-5-5------------|

Main Guitar Rift

Transition To Verse

Verse

Pre-Chorus

Chorus

Bridge: Part 1
e|---------------------------------------------------------------------------|
B|---------------------------------------------------------------------------|
G|4-4-x-x-x-x-x-4-4-4-x-x-x-x-4-4--------------------------------------------|
D|4-4-x-x-x-x-x-4-4-4-x-x-x-x-4-4-5-5-x-x-x-x-x-5-5-5-x-x-x-x-5-5------------|
A|2-2-x-x-x-x-x-2-2-2-x-x-x-x-2-2-5-5-x-x-x-x-x-5-5-5-x-x-x-x-5-5------------|
E|--------------------------------3-3-x-x-x-x-x-3-3-3-x-x-x-x-3-3------------|

Bridge: Part 2
e|---------------------------------------------------------------------------|
B|---------------------------------------------------------------------------|
G|7-7-x-x-x-x-x-7-7-7-x-x-x-x-7-7--------------------------------------------|
D|7-7-x-x-x-x-x-7-7-7-x-x-x-x-7-7-4-4-x-x-x-x-x-4-4-4-x-x-x-x-4-4------------|
A|5-5-x-x-x-x-x-5-5-5-x-x-x-x-5-5-4-4-x-x-x-x-x-4-4-4-x-x-x-x-4-4------------|
E|--------------------------------2-2-x-x-x-x-x-2-2-2-x-x-x-x-2-2------------|

Repeat Part 1

Bridge: Part 3
e|---------------------------------------------------------------------------|
B|---------------------------------------------------------------------------|
G|7-7-x-x-x-x-x-7-7-7-x-x-x-x-7-7--------------------------------------------|
D|7-7-x-x-x-x-x-7-7-7-x-x-x-x-7-7-4-4-4-4-4-4-4-4-5-5-5-5-7-7-7-7------------|
A|5-5-x-x-x-x-x-5-5-5-x-x-x-x-5-5-4-4-4-4-4-4-4-4-5-5-5-5-7-7-7-7------------|
E|--------------------------------2-2-2-2-2-2-2-2-3-3-3-3-5-5-5-5------------|

Guitar Solo (Exact Same Chords As Chorus)

Break Down: Part 1, Play Three Times (p stands for palm muted)
  p p      p p      p   p   p p p
e|---------------------------------------------------------------------------|
B|---------------------------------------------------------------------------|
G|---------------------------------------------------------------------------|
D|---------------------------------------------------------------------------|
A|---------------------------------------------------------------------------|
E|5-5-5----8-8-8----3-3-3-2-2-2-2--------------------------------------------|

Break Down: Part 2 (p stands for palm muted)
  p p      p p 
e|---------------------------------------------------------------------------|
B|---------------------------------------------------------------------------|
G|---------------------------------------------------------------------------|
D|---------------------------------------------------------------------------|
A|---------------------------------------------------------------------------|
E|5-5-5----8-8-8----3-5-3-2--------------------------------------------------|

Break Down: Part 3
e|---------------------------------------------------------------------------|
B|---------------------------------------------------------------------------|
G|---------------------------------------------------------------------------|
D|7-7-7----101010---5-5---4---4-4-4------------------------------------------|
A|7-7-7----101010---5-5---4---4-4-4------------------------------------------|
E|5-5-5----8-8-8----3-3---2---2-2-2------------------------------------------|

Break Down: Part 4
e|---------------------------------------------------------------------------|
B|---------------------------------------------------------------------------|
G|---------------------------------------------------------------------------|
D|7-7-7----101010---5-7-5-4---4-4-4------------------------------------------|
A|7-7-7----101010---5-7-5-4---4-4-4------------------------------------------|
E|5-5-5----8-8-8----3-5-3-2---2-2-2------------------------------------------|


Chorus

Main Guitar Riff

Outro: Exact Same As Transition To Verse


************************************

| /   slide up
| \   slide down
| h   hammer-on
| p   pull-off
| ~   vibrato
| +   harmonic
| x   Mute note
| b   Bend
| pb  Pre-bend
| br  Bend release
| pbr Pre-bend release
| brb Bend release bend

************************************
Добавлено: 18.04.2016
Другие материалы по этой песне:
  • Аккорды и текст

Страница создана 18.04.2016
http://primanota.ru/misc-unsigned-bands/future-fighters-on-my-own-chords.htm
Привет, Гость.
Предлагаем пройти революционный курс по гитаре.
Подарок от PrimaNota.Ru, забирай!