PrimaNota.ru - самый крупный в мире бесплатный архив песенных текстов, аккордов, табулатур и нот


Misc Unsigned Bands - Escape The Day - Ghostless - таба

Регистрация Запомнить меня
Войти через:  Facebook Google Twitter Vk Yandex Mail.ru

Misc Unsigned Bands - Escape The Day - Ghostless - таба

Печатать
Просмотров: 48
-------------------------------------------------------------------------------
                           GHOSTLESS - Escape the Day
-------------------------------------------------------------------------------
This song is Ghostless by the German band Escape the Day 

Tuning:DGCFAD

INTRO
Guitar 1

D|---------------------------------------------------------------------------|
A|---------------------------------------------------------------------------|
F|---------------------------------------------------------------------------|
C|--10-7-7-8-7-7-8-7-10-7-7-8-7-7-8-7-10-7-7-8-7-7-8-7-10-7-7-8-7-7-8-7------|
G|---------------------------------------------------------------------------|
D|---------------------------------------------------------------------------|

~~~~~~~~~~~~~~~~~~~~~~~~~~~~~~~~~~~~~~~~~~~~~~~~~~~~~~~~~~~~~~~~~~~~~~~~~~~~~~
VERSES (both guitar 1 and guitar 2)
Guitar 1
RIFF 1
D|---------------------------------------------------------------------------|
A|---------------------------------------------------------------------------|
F|---------------------------------------------------------------------------|
C|--10-7-7-8-7-7-8-7-10-7-7-8-7-7-8-7-10-7-7-8-7-7-8-7-10-7-7-8-7-7-8-7------|
G|---------------------------------------------------------------------------|
D|---------------------------------------------------------------------------|

Guitar 2

D|-------------0-(let ring)--------------------------------------------------|
A|-------10------10----10----------------------------------------------------|
F|----10----10------10-------------------------------------------------------|
C|--0-(let ring)-------------------------------------------------------------|
G|---------------------------------------------------------------------------|
D|---------------------------------------------------------------------------|
  Guitar 2 plays this riff over and over
~~~~~~~~~~~~~~~~~~~~~~~~~~~~~~~~~~~~~~~~~~~~~~~~~~~~~~~~~~~~~~~~~~~~~~~~~~~~~~
Guitar 1
RIFF 2
D|---------------------------------------------------------------------------|
A|---------------------------------------------------------------------------|
F|---------------------------------------------------------------------------|
C|---------------------------------------------------------------------------|
G|--10-7-7-8-7-7-8-7-10-7-7-8-7-7-8-7-10-7-7-8-7-7-8-7-10-7-7-8-7-7-8-7------|
D|---------------------------------------------------------------------------|

Guitar 2

D|-------------0-(let ring)--------------------------------------------------|
A|-------10------10----10----------------------------------------------------|
F|----10----10------10-------------------------------------------------------|
C|--0-(let ring)-------------------------------------------------------------|
G|---------------------------------------------------------------------------|
D|---------------------------------------------------------------------------|
 Guitar 2 plays this riff over and over
~~~~~~~~~~~~~~~~~~~~~~~~~~~~~~~~~~~~~~~~~~~~~~~~~~~~~~~~~~~~~~~~~~~~~~~~~~~~~~

SO this basically the whole song, except when the song changes halfway through

| /  slide up
| \  slide down
| h  hammer-on
| p  pull-off
| ~  vibrato
| +  harmonic
| x  Mute note
===============================================================================
Добавлено: 18.04.2016
Другие материалы по этой песне:
  • Аккорды и текст

Страница создана 18.04.2016
http://primanota.ru/misc-unsigned-bands/escape-day-ghostless-chords.htm
Привет, Гость.
Предлагаем пройти революционный курс по гитаре.
Подарок от PrimaNota.Ru, забирай!