PrimaNota.ru - самый крупный в мире бесплатный архив песенных текстов, аккордов, табулатур и нот


Misc Unsigned Bands - Follow That Taxi - A Million Beats - таба

Регистрация Запомнить меня
Войти через:  Facebook Google Twitter Vk Yandex Mail.ru

Misc Unsigned Bands - Follow That Taxi - A Million Beats - таба

Печатать
Просмотров: 62
[LeadGuitar][First Riff x2]     [Second Riff x2]                       
e---------------------    e---------------------[Redo All Once More]
B---------------------    B---------0-----------
G---------0-----------    G-----0------0---9----     
D-----0------0---0----    D-------9-----9---HOLD
A-------9-----9---HOLD    A---7-------------HOLD
E---7-------------HOLD    E---------------------
[RythmeGuitar]                                  [Played At The Same Time]
e---------------------    e---------------------
B---------------------    B---------------------
G---------------------    G---------------------
D---------------------    D---9-9-9-9-9-9-9-9---
A---9-9-9-9-9-9-9-9---    A---7-7-7-7-7-7-7-7---
E---7-7-7-7-7-7-7-7---    E---------------------
[www.Myspace.com/FollowThatTaxi] To Listen.
Добавлено: 18.04.2016
Другие материалы по этой песне:
  • Аккорды и текст

Страница создана 18.04.2016
http://primanota.ru/misc-unsigned-bands/follow-that-taxi-a-million-beats-chords.htm
Привет, Гость.
Предлагаем пройти революционный курс по гитаре.
Подарок от PrimaNota.Ru, забирай!