PrimaNota.ru - самый крупный в мире бесплатный архив песенных текстов, аккордов, табулатур и нот


Misc Unsigned Bands - Electric Army - Listen - бас-таба, видео

Регистрация Запомнить меня
Войти через:  Facebook Google Twitter Vk Yandex Mail.ru

Misc Unsigned Bands - Electric Army - Listen - бас-таба, видео

Печатать
Просмотров: 104
-------------------------------------------------------------------------------
                             LISTEN - ELECTRIC ARMY
-------------------------------------------------------------------------------
Tabbed by: lucbuzz
E-mail:electricarmymusic@gmail.com 

Tuning: E A D G

THE ELECTRIC ARMY ORIGINAL!!! LISTEN!!! As heard on 
https://www.facebook.com/video.php?v=10152616194202086&set=vb.634947085&type=2&theater
Support Electric Army and like us on Facebook @ https://www.facebook.com/OfficialElectricArmy
    
    Verse
G|---------------------------------------------------------------------------|
D|---------------------------------------------------------------------------|
A|---------------------------------------------------------------------------|
E|--55555555---77777777--8-8-8p7h8/9-9-9-9-9---------------------------------|x2
                       
    Chorus
G|---------------------------------------------------------------------------|
D|-----------5h7----------3h5-----------1h3----------------------------------|
A|-------5h7-----------3h5----------1h3--------------------------------------|
E|--5555----------3333--------1111----------0-00--5/9\3----------------------|X4

  The Bridge
G|-------------------------|
D|-------------------------|
A|-------------------------|
E|--0----8-------0------8--|
  
  Post Bridge
G|----16--16--|
D|------------|
A|--14--14----|
E|------------|

  Outro  
G|-----------|
D|-----------|
A|-----------|
E|--8\-------|



| /  slide up
| \  slide down
| h  hammer-on
| p  pull-off


===============================================================================
Добавлено: 22.08.2015
Другие материалы по этой песне:
  • Аккорды и текст

Страница создана 22.08.2015
http://primanota.ru/misc-unsigned-bands/electric-army-listen-chords.htm
Привет, Гость.
Предлагаем пройти революционный курс по гитаре.
Подарок от PrimaNota.Ru, забирай!