PrimaNota.ru - самый крупный в мире бесплатный архив песенных текстов, аккордов, табулатур и нот


Misc Unsigned Bands - Emfbd - Believe The Lies - бас-таба

Регистрация Запомнить меня
Войти через:  Facebook Google Twitter Vk Yandex Mail.ru

Misc Unsigned Bands - Emfbd - Believe The Lies - бас-таба

Печатать
Просмотров: 83
EMFBD - Believe The Lies
Tabbed by: gubugga97@gmail.com
Tuning: Standard 

Intro

G|---------------------------------------------------------------|
D|---------------------------------------------------------------|
A|---------------------------------------------------------------|
E|-0~-----------------------------0~-----------------------------|

Verse

G|-------------------------------l--------------------------------|
D|-------------------------------l--------------------------------|
A|-----------------------0-0-----l--------------------------------|
E|-0-0-0-0-0-0-0-0-0-0-0-----3-0-l-3-3-3-3-3-3-3-3-1-1-1-1-1-1-1-1|

Chorus

G|-------------------------6/10-8--------------------------------|
D|--------------------------------10-8---------------------------|
A|-5-5-6-6---------5-5-6-6-------------10-8----------------------|
E|---------6-6-8-8--------------------------10-8-----------------|

Bridge
G|---------------------------------------------------------------|
D|---------------------------------------------------------------|
A|---------------------------------------------------------------|
E|-3-3-3-3-3-3-3-3-3-3-3-3-3-3-3-3-1-1-1-1-1-1-1-1---------------|


G|---------------------------------------------------------------|
D|---------------------------------------------------------------|
A|---------0-0-------------0-0-------------0-0-------------------|
E|-0-0-0-0-----3-0-0-0-0-0-----3-0-0-0-0-0-----3-0---------------|



| /  slide up
| \  slide down
| h  hammer-on
| p  pull-off
| ~  vibrato
| +  harmonic
| x  Mute note
Добавлено: 23.08.2015
Другие материалы по этой песне:
  • Аккорды и текст

Страница создана 23.08.2015
http://primanota.ru/misc-unsigned-bands/emfbd-believe-lies-chords.htm
Привет, Гость.
Предлагаем пройти революционный курс по гитаре.
Подарок от PrimaNota.Ru, забирай!