PrimaNota.ru - самый крупный в мире бесплатный архив песенных текстов, аккордов, табулатур и нот


Misc Unsigned Bands - The Devil Who Deceived Them - Violence Dark World - бас-таба

Регистрация Запомнить меня
Войти через:  Facebook Google Twitter Vk Yandex Mail.ru

Misc Unsigned Bands - The Devil Who Deceived Them - Violence Dark World - бас-таба

Печатать
Просмотров: 101
-------------------------------------------------------------------------------
                    Violence - The Devil Who Deceived Them
-------------------------------------------------------------------------------
Tabbed by: the wizard
E-mail: 

Tuning: Drop G# - G#, Eb, G#, C#, F#

G|---------------------------------------------------------------------------|
D|---------------------------------------------------------------------------|
A|3-----------3-----------3-------3-----------3-----------3------------------|
E|--4-3-3-3-3---4-3-3-3-3---4-3-3---4-3-3-3-3---4-3-3-3-3---4-3-3------------|
A|---------------------------------------------------------------------------|


G|---------------------------------------------------------------------------|
D|---------------------------------------------------------------------------|
A|6-----------6-----------6-------6-----------6-----------6------------------|
E|--8-7-7-7-7---8-7-7-7-7---8-7-7---8-7-7-7-7---8-7-7-7-7---8-7-7------------|
A|---------------------------------------------------------------------------|


G|---------------------------------------------------------------------------|
D|---------------------------------------------------------------------------|
A|3-----------3-----------3-------3-----------3-----------3------------------|
E|--4-3-3-3-3---4-3-3-3-3---4-3-3---4-3-3-3-3---4-3-3-3-3---4-3-3------------|
A|---------------------------------------------------------------------------|


G|---------------------------------------------------------------------------|
D|---------------------------------------------------------------------------|
A|1--------------------------------------------------------------------------|
E|--3-2-0--------------------------------------------------------------------|
A|--------1-1---1---1--1-1---1---1--1-1---0--0-0-0-0-0-----------------------|
cut off these notes ^  ^ ^   ^   ^  ^ ^   ^  ^ ^ ^ ^ ^

G|---------------------------------------------------------------------------|
D|---------------------------------------------------------------------------|
A|---------------------------------------------------------------------------|
E|---------------------------------------------------------------------------|
A|1--1-1--1--1--1-1--1-1---1--1-1--1-1----0--0-0-0-0-0-----------------------|
hold out these notes ^ ^   ^  ^ ^  ^ ^    ^  ^ ^ ^ ^ ^

G|---------------------------------------------------------------------------|
D|---------------------------------------------------------------------------|
A|---------------------------------------------------------------------------|
E|---------------------------------------------------------------------------|
A|1--1-1--1--1--1-1--1-1---1--1-1--1-1----0--0-0-0-0-0-----------------------|
cut off again   ^ ^  ^ ^   ^  ^ ^  ^ ^    ^  ^ ^ ^ ^ ^

G|---------------------------------------------------------------------------|
D|---------------------------------------------------------------------------|
A|3-----------3-----------3-------3-----------3-----------3------------------|
E|--4-3-3-3-3---4-3-3-3-3---4-3-3---4-3-3-3-3---4-3-3-3-3---4-3-3------------|
A|---------------------------------------------------------------------------|


G|---------------------------------------------------------------------------|
D|---------------------------------------------------------------------------|
A|6-----------6-----------6-------6-----------6-----------6------------------|
E|--8-7-7-7-7---8-7-7-7-7---8-7-7---8-7-7-7-7---8-7-7-7-7---8-7-7------------|
A|---------------------------------------------------------------------------|


G|---------------------------------------------------------------------------|
D|---------------------------------------------------------------------------|
A|3-----------3-----------3-------3-----------3-----------3------------------|
E|--4-3-3-3-3---4-3-3-3-3---4-3-3---4-3-3-3-3---4-3-3-3-3---4-3-3------------|
A|---------------------------------------------------------------------------|


G|---------------------------------------------------------------------------|
D|---------------------------------------------------------------------------|
A|1--------------------------------------------------------------------------|
E|--3-2-0--------------------------------------------------------------------|
A|--------1-1---1---1--1-1---1---1--1-1---0--0-0-0-0-0-----------------------|


G|----------------------------------------------------------------------------|
D|----------------------------------------------------------------------------|
A|----------------------------------------------------------------------------| x2
E|----------------------------------------------------------------------------|
A|1b^2-0-1b^2-0-1b^2-0---0-0--0-1b^2-0-1b^2--0--0-1b^2-0-1b^2--0--0-0--0-0-0-0|


G|----------------------------------------------------------------------------|
D|----------------------------------------------------------------------------|
A|----------------------------------------------------------------------------|x2
E|----------------------------------------------------------------------------|
A|1----0-1----0-1----0---0-0--0-1----0-1-----0--0-1----0-1-----0--0---3-2-0-2-|


G|--------|-----------------------------------------------------------------------|
D|--------|-----------------------------------------------------------------------|
A|--------|3-2-0-0-0-0-0-0-3-2-0-0-0-0-0-0-0-0-0-0-0-2-1-0-2-1-0-0-0-0-0-0-0-0-0-0|x3
E|--------|-----------------------------------------------------------------------|
A|2---3--2|-----------------------------------------------------------------------|


G|---------------------------------------------------------------------------|
D|---------------------------------------------------------------------------|
A|3-2-0-0-0-0-0-0-3-2-0-0-0-0-0-0-0-0-0-0-0-2-1-0-2-1-0-0-1-1-1-1-1-1-1-1/---|
E|---------------------------------------------------------------------------|
A|---------------------------------------------------------------------------|


G|---------------------------------------------------------------------------|
D|---------------------------------------------------------------------------|
A|---------------------------------------------------------------------------|
E|---------------------------------------------------------------------------|
A|3-2-1---3-2-1---3-2-1--2-1-0--0-0-0-0-0-0-0-0-0-0--------------------------|


G|---------------------------------------------------------------------------|
D|---------------------------------------------------------------------------|
A|---------------------------------------------------------------------------|
E|-------------------------------------------1/12----------------------------|
A|3-2-1---3-2-1---3-2-1--2-1-0--0-0-0-0-0-0----------------------------------|


G|---------------------------------------------------------------------------|
D|---------------------------------------------------------------------------|
A|3-2-0-0-0-0-0-0-3-2-0-0-0-0-0-0-0-0-0-0-0-2-1-0-2-1-0-0-0-0-0-0-0-0-0-0----|x2
E|---------------------------------------------------------------------------|
A|---------------------------------------------------------------------------|


G|------------------------------------------------------------------------------------|
D|------------------------------------------------------------------------------------|
A|------------------------------------------------------------------------------------|
E|------------------------------------------------------------------------------------|
A|3--2--0--0--0--0--3--2--0--0--0--0--0--0--0--0--0--2--1--0--2--1-0-0-0-0-0-0-0-0-0-0|


G|---------------------------------------------------------------------------|
D|---------------------------------------------------------------------------|
A|---------------------------------------------------------------------------|
E|---------------------------------------------------------------------------|
A|3--2--0--0--0--0--3--2--0--0--0--0--0--0--0--0--0--2--1--0--2--1-0--0--0--0|


G|----------8-------9--------8\|---------------------------------------------|
D|-----------------------------|---------------------------------------------|
A|----7--6----6--7-----7--6----|---------------------------------------------|
E|7h8--------------------------|---------------------------------------------|
A|-----------------------------|---------------------------------------------|
lead in to slow-down

G|---------------------------------------------------------------------------|
D|---------------------------------------------------------------------------|
A|---------------------------------------------------------------------------|
E|---------------------------------------------------------------------------|
A|3---2---0---0---0---0---3---2---0---0---0---0---0---0----------------------|


G|---------------------------------------------------------------------------|
D|---------------------------------------------------------------------------|
A|---------------------------------------------------------------------------|
E|---------------------------------------------------------------------------|
A|0---2---1---0---2---1---0---0---0---0-0--0-0---0-0-0-0-0-0-----------------|


G|---------------------------------------------------------------------------|
D|---------------------------------------------------------------------------|
A|---------------------------------------------------------------------------|
E|---------------------------------------------------------------------------|
A|3---2---0---0---0---0---3---2---0---0---0---0---0---0----------------------|


G|-----------------------------|---------------------------------------------|
D|-----------------------------|-----9----8----8-9----9-8h9p8----------------|
A|-----------------------------|9h10---10---10-----10---------10-9-----------|
E|-----------------------------|---------------------------------------------|
A|0---2---1---0---2---1---0---0|---------------------------------------------|


G|-----------------------------|---------------------------------------------|
D|-----------------------------|---------------------------------------------|
A|3-2---3-2---x--x-x---2-1--2-1|3-2---3-2------2-1--2-1-x-x-x----------------|x2
E|-----------------------------|----------0/12-------------------------------|
A|-----------------------------|---------------------------------------------|


G|---------------------------------------------------------------------------|
D|---------------------------------------------------------------------------|
A|---------------------------------------------------------------------------|
E|---------------------------------------------------------------------------|
A|1-1---1-1------1-1--1-1--111-1-1-1-1--1-1--0-0--0-0--0-0--0-0--0-0--0-0----|


G|----------------------------------------|----------------------------------|
D|----------------------------------------|----------------------------------|
A|3---------------------------------------|3------------6h7-6----------------|x2
E|--4-3-x-x-x-----------------------------|--4-3-x-x-x--------8-x-7-x-6-x-6-6|
A|------------2-2-2--1-x-0-x-0-x-0-x-0-x-0|----------------------------------|


G|---------------------------------------------------------------------------|
D|---------------------------------------------------------------------------|
A|---------------------------------------------------------------------------|x2
E|---------------------------------------------------------------------------|
A|2-2----2------1-1----1------2-2----2------1-1----1--1--1-1---1-1---1-1---1-|


G|---------------------------------------------------------------------------|
D|---------------------------------------------------------------------------|
A|--------------1----------1--------------------1---------1------------------|x2
E|---------------------------------------------------------------------------|
A|2-1-1-1-1-1-1---1-2-1-1---1-1-1-2-1-1-1-1-1-1---1-2-1-1---1-1-1------------|


G|------------------------------------------------------|--------------------|
D|------------------------------------------------------|--------------------|
A|------------------------------------------------------|0---0---------------|
E|------------------------------------------------------|--------------------|
A|6-5--3-3--2-2--3-3--2-2--0-0--0-0--0-0--0--0-0-0-0-0-0|--------------------|
REALLY HEAVY PART                                 fourth measure^^

G|---------------------------------------------------------------------------|
D|---------------------------------------------------------------------------|
A|0-0--0-0--0-0--5-0--0-0--0-5-0-5---0-0--0-0--0-0--5-0--0-0--0-5-0-5--------|
E|---------------------------------------------------------------------------|
A|---------------------------------------------------------------------------|


G|---------------------------------------------------------------------------|
D|---------------------------------------------------------------------------|
A|0-0--0-0--0-0--5-0--0-0--0-5-0-5---0-0--0-0--0-0--5-0--0-0--0--------------|
E|--------------------------------------------------------------5---5---3----|
A|---------------------------------------------------------------------------|


G|---------------------------------------------------------------------------|
D|---------------------------------------------------------------------------|
A|3-3-3-3-3-3-3-3-------3-3-3------------------------------------------------|
E|----------------4-4-4-------4-4-3-3-3-3-3-3-3-3----------------------------|
A|-------------------------------------------------6--5--3---6--5--3---------|  }
                                                                                 }
                                                                                 }
G|---------------------------------------------------------------------------|   }x2
D|---------------------------------------------------------------------------|   }
A|6-6-6-6-6-6-6-6-------6-6-6------------------------------------------------|   }
E|----------------8-8-8-------8-8-7-7-7-7-7-7-7-7-----6----------------------|  }
A|-------------------------------------------------8-----8--7h8-7------------|  }


G|---------------------------------------------------------------------------|
D|---------------------------------------------------------------------------|
A|---------------------------------------------------------------------------|x2
E|---------------------------------------------------------------------------|
A|2-2----2------1-1----1------2-2----2------1-1----1--1--1-1---1-1---1-1---1-|




| /  slide up
| \  slide down
| h  hammer-on
| p  pull-off
| ~  vibrato
| +  harmonic
| x  Mute note
| b  Bend note
===============================================================================
Добавлено: 21.08.2015
Другие материалы по этой песне:
  • Аккорды и текст

Страница создана 21.08.2015
http://primanota.ru/misc-unsigned-bands/devil-who-deceived-them-violence-dark-world-chords.htm
Привет, Гость.
Предлагаем пройти революционный курс по гитаре.
Подарок от PrimaNota.Ru, забирай!