PrimaNota.ru - самый крупный в мире бесплатный архив песенных текстов, аккордов, табулатур и нот


Misc Unsigned Bands - The Devil Who Deceived Them - Odium - бас-таба

Регистрация Запомнить меня
Войти через:  Facebook Google Twitter Vk Yandex Mail.ru

Misc Unsigned Bands - The Devil Who Deceived Them - Odium - бас-таба

Печатать
Просмотров: 80
-------------------------------------------------------------------------------
                             ODIUM - TDWDT
-------------------------------------------------------------------------------
Tabbed by: Koral
E-mail: 

Tuning: 4 string half step down

G|---------------------------------------------------------------------------|
D|---------------------------------------------------------------------------|
A|8--4--2--2-2-2-2-2-2-3-2-0-2-3-2-|-22-2-2-2-3-2-|-5p3p2-2-2-3-22--5b-------|
E|---------------------------------------------------------------------------|
                    one beat rest  ^
G|----------------------------------------------------------------------------------|
D|----------------------------------------------------------------------------------|
A|5-6--------------------------------------------------------------------5-5-6-5--3b|
E|----5-6-0-0-0-0-0-0-6-5-0-0-0-0-0-0-5-6-0-0-0-0-0-0-6-5-0-0-0-0-0-5-6-0-----------|
"...and I have nothing to be mad about..."
G|----------------x-x--------------------------------------------------------|
D|----------------x-x--------------------------------------------------------|
A|-0-0-0-0--0-0---x-x---0--00--0--0-0----------------------------------------|x2
E|----------------x-x------------------5-5-5--6-6-6--------------------------|

G|---------------------------------------------------------------------------|
D|---------------------------------------------------------------------------|
A|-1---1----1-1---1-1---1------1--1-1--0-1b-00-1b-0--------------------------|
E|---0---0-----------------00------------------------------------------------|
(two 1's,   ^ not 11)
G|---------------------------------------------------------------------------|
D|---------------------------------------------------------------------------|
A|1b-0-0-0-0-0-0-0-0-0-0-0-0-0-0-0--1b-1b--1------1b-0-0--1-1-1-1-1-1--------|
E|--------------------------------------------00-----------------------------|

G|---------------------------------------------------------------------------|
D|---------------------------------------------------------------------------|
A|8--4--2--0-1-0-1h2-1-0-1-1b-2--x--xx-x--x-x--------------------------------|
E|---------------------------------------------------------------------------|
                                          mini guitar solo right here, just rest
G|---------------------------------------------------------------------------|
D|---------------------------------------------------------------------------|
A|----------------------1-1-1-1-1-1-1-1---0--0--0-1b--0-0-0------------------|
E|-3-2-3-2-3-2-3-3--4b-------------------------------------------------------|

G|---------------------------------------------------------------------------|
D|---------------------------------------------------------------------------|
A|-5--8---10-7--|-|-|-|--0-0-0-0-0-0-3b4r3-0--00--1-1-1----------------------|
E|---------------------------------------------------------------------------|
"we are disaster.." 4 count rest
G|----------------------------------------------------9*---------------------|
D|---------------------------------------------------------------------------|
A|-0-00--0000--0--00--0--00--00-00--1--1--1-1--3b----------------------------|
E|---------------------------------------------------------------------------|
                                              harmonic^
G|---------------------------------------------|----------------------------8--8---8-|
D|---------------------------------------------|-----------------------10h12-12--12--|
A|4---44-44--4-444--7p4----------5h7-----5h7---|0---0--00-0--000--0-0----------------|
E|----------------------5p4--0-0-----0-0-----5-|-------------------------------------|
(the hammadown)
G|---------------------------------------------|----------------------------8--8---8-|
D|---------------------------------------------|-----------------------10h12-12--12--|
A|4---44-44--4-444--4-4-4-4-4-4--5h7-----5h7---|0---0--00-0--000--0-0----------------|
E|-----------------------------------0-0-----5-|-------------------------------------|

G|--------------------------------------|-------------------8---8---8---8---8|
D|--------------------------------------|------------------12--12--12--12--12|
A|---------------------7trrrrrr4trrrrr--|------------------------------------|
E|4--4--4--4--4---4-4-------------------|-0--0---0--0---0--------------------|
slap notes on E, tremelo pick ^^^^^
G|---------------------------------------------|----------------------------8--8---8-|
D|---------------------------------------------|-----------------------10h12-12--12--|
A|4---44-44--4-444--7p4----------5h7-----5h7---|0---0--00-0--000--0-0----------------|
E|----------------------5p4--0-0-----0-0-----5-|-------------------------------------|

G|-----------------------------|---------------------------------------------|
D|--7---7---7------------------|--3---3b---3---3-----------------------------|
A|8---8------8-8-8--7--5b--0-0-|4---4----4-------4-4-4-4--4-4-4--4-1-1--1-1-1|
E|-----------------------------|---------------------------------------------|

G|---------------------------------------|-----------------------------------|
D|4-------4----------4-------------------|4-----4--------4-------------------|
A|--1b-0----1b-0-1b----1b-0--1-1--1-1-1-1|--1-0---1-0-1b---1-0--1-1--1-1-0---|
E|---------------------------------------|-----------------------------------|

G|---------------------------------------------------------------------------|
D|---------------------------------------------------------------------------|
A|1-1--1-1-1--1-1-1--1-1-1--1-1-1--1-1-1--1-1-1--1-1-1--1-1--3b4r3-----------|
E|---------------------------------------------------------------------------|
this is a build up to the next breakdown. its like a breakdown bridge into a breakdown.
G|---------------------------------------------------------------------------|
D|---------------------------------------------------------------------------|
A|1-1--1-1-1--1-1-1--1-1-0--1-1--1-1-1--1-1-1--1-1---------------------------|
E|---------------------------------------------------------------------------|
cut these notes really short, draw the first one out, but cut the last.
G|---------------------------------------------------------------------------|
D|---------------------------------------------------------------------------|
A|1-1--1-1-1--1-1-1--1-1-0--1-1--1-1-1--1-1-1--1-1x--------------------------|
E|---------------------------------------------------------------------------|
draw these notes out, don't release the note at all this measure until the last note
G|-------------------------8--8--8-------------------------------------------|
D|------------------------12-12-12-------------------------------------------|
A|0-0x--0-0---0x-0-0---0-------------0-0-0-----------------------------------|
E|---------------------------------------------------------------------------|
  cut^ring^
G|-------------------------------------------|-------------------------------|
D|-------------------------------------------|-------------------------------|
A|1-1--1-1-1--1-1-1--1-1-0---1-1-1-1--1-1-1-1|-5//8--2//5--1-1--0------------|x2
E|-------------------------------------------|-------------------------------|

G|-------------|----------------------------------|----------------------------------|
D|-------------|----------------------------------|----------------------------------|
A|0-0-0-0-0-0-0|0-0-0-0-0-0-0-1h2p1-0-0-00-5-x3-x8|0-0-0-0-0-0-0-1h2p1-0-0-00-5-x8-x3|x2 repeat where 
E|-------------|----------------------------------|----------------------------------| measure begins
lead in^      next measure begins^
G|---------------------------------------------------------------------------|
D|-----------------------------------------5---------------------------------|
A|0-0-0--0-0--00------------0-0-0--0-0--00---6--3b--0000---------------------|
E|---------------3-3-3-3-3---------------------------------------------------|

G|--------------------------------------------9*-----------------------------|
D|---------------------------------------------------------------------------|
A|0-0-0--0-0--00------------0-0-0--0-0--00-0---------------------------------|
E|---------------3---3--33---------------------------------------------------|

G|------------------------------------------|------------------------------------------|
D|------------------------------------------|------------------------------------------|
A|1-1---1-1---1-1---1-0---1-1---1-1---1-1--1|1-1---1-1---1-1---1-0---1-1---1-1--1-1---1|
E|------------------------------------------|------------------------------------------|
cut these notes^                              hold these notes out^^
G|-------------------------------------------------|------------------------------------------------|
D|-------------------------------------------------|------------------------------------------------|
A|2-2--2-2-2--2-2-2--2-2-0---2-2--2-2-2--2-2-2--2-2|3-3--3-3-3--3-3-3--3-0-1b-3-3--3-3-3--3-3-3--3-3|
E|-------------------------------------------------|------------------------------------------------|

G|---------------------------------------------------------------------------|
D|---------------------------------------------------------------------------|
A|8--4--2--2-2-2-2-2-2-3-2-0000-2-3-2--222222-3-2-5p3p2--22--2--3--22--5//17b|
E|---------------------------------------------------------------------------|
really slow retardando^ 
G|---------------------------------------------------------------------------------------|
D|------------------------------------------------------------------------------------0--|
A|5-6--------------------------------------------------------------------5-5-6-5--3b--4--|
E|----5-6-0-0-0-0-0-0-6-5-0-0-0-0-0-0-5-6-0-0-0-0-0-0-6-5-0-0-0-0-0-5-6-0----------------|
same here^


| /  slide up
| \  slide down
| h  hammer-on
| p  pull-off
| ~  vibrato
| *  harmonic
| x  Mute note
| b  Bend note
| r  release bend
===============================================================================
Добавлено: 27.08.2015
Другие материалы по этой песне:
  • Аккорды и текст

Страница создана 27.08.2015
http://primanota.ru/misc-unsigned-bands/devil-who-deceived-them-odium-chords.htm
Привет, Гость.
Предлагаем пройти революционный курс по гитаре.
Подарок от PrimaNota.Ru, забирай!