PrimaNota.ru - самый крупный в мире бесплатный архив песенных текстов, аккордов, табулатур и нот


Misc Unsigned Bands - Cjm - 12 - таба

Регистрация Запомнить меня
Войти через:  Facebook Google Twitter Vk Yandex Mail.ru

Misc Unsigned Bands - Cjm - 12 - таба

Печатать
Просмотров: 87
tuned to drop d

 
These are in no particular order, I named them to avoid confusion. They seem like they may need some work, 
but they can be build off of.


lead guitar

4/4

Intro

 |       |       |       |        |       |       |       |        
|--------------------------------|--------------------------------|
|--------------------------------|--------------------------------|
|0-------------------------------|--------------------------------|
|2-------------------------------|0-------------------------------|
|--------------------------------|9-------------------------------|
|0-------------------------------|--------------------------------|
 
 |       |       |       |        |       |       |       |        
|--------------------------------|--------------------------------|
|0-------------------------------|0-------------------------------|
|0-------------------------------|0-------0---------------2-------|
|--------------------------------|--------2---------------4-------|
|--------------------------------|--------------------------------|
|3-------------------------------|3-------0---------------2-------|
 
 |       |       |       |        |       |       |       |        
|--------------------------------|--------0-----------------------|
|--------0---------------1-------|--------0-----------------------|
|--------0---------------2-------|--------0-----------------------|
|--------------------------------|--------2-----------------------|
|------------------------0-------|--------------------------------|
|--------3-----------------------|--------------------------------|


Chorus
 
 |       |       |       |        |       |       |       |        
|3---0---0---0---0-----0-0---0---|--------------------------------|
|0---0---0---0---0-----0-0---0---|3---3---3---3---3-----3-3---3---|
|--------------------------------|----2---2---2---2-----2-2---2---|
|----2---2---2---2-----2-2---2---|4---0---0---0---0-----0-0---0---|
|--------------------------------|--------------------------------|
|--------------------------------|--------------------------------|
 
 |       |       |       |        |       |       |       |        
|----3---3---3---3-----3-3---3---|--------------------------------|
|0---3---3---3---3-----3-3---3---|1-------------------------------|
|----0---0---0---0-----0-0---0---|--------------------------------|
|2-------------------------------|2---2---2---2---2-----2-2---2---|
|--------------------------------|----2---2---2---2-----2-2---2---|
|--------------------------------|----0---0---0---0-----0-0---0---|


Verse

 
 |       |       |       |        |       |       |       |        
|--------0---------------3---2---|------------------------1---0---|
|----------------0---------------|--------3-----------------------|
|--------------------------------|----------------2---------------|
|2-------------------------------|0-------------------------------|
|--------------------------------|--------------------------------|
|--------------------------------|--------------------------------|
 
 |       |       |       |        |       |       |       |        
|--------2---------------5---4---|--------0---------------3---2---|
|----------------2---------------|----------------0---------------|
|2-------------------------------|--------------------------------|
|--------------------------------|2-------------------------------|
|--------------------------------|--------------------------------|
|--------------------------------|--------------------------------|


Bridge

 
 |       |       |       |        |       |       |       |        
|--------------------------------|3---3---2---2---5---5---0---0---|
|3-------3-3---3-3---3---3---3---|3---3---0---0---3---3---12--12--|
|2-------2-2---2-2---2---2---2---|0---0---16--16--19--19--21--21--|
|0-------0-0---0-0---0---0---0---|--------------------------------|
|--------------------------------|--------------------------------|
|--------------------------------|--------------------------------|


_________________________________________________________________________________________


rhythm guitar

4/4

Intro


 |       |       |       |        |       |       |       |        
|0-------------------------------|2-------------------------------|
|8-------------------------------|3-------------------------------|
|--------------------------------|--------------------------------|
|2-------------------------------|0-------------------------------|
|--------------------------------|--------------------------------|
|--------------------------------|--------------------------------|
 
 |       |       |       |        |       |       |       |        
|3-------------------------------|3-------0---------------2-------|
|12------------------------------|12------8---------------10------|
|0-------------------------------|0-------------------------------|
|--------------------------------|--------2---------------4-------|
|--------------------------------|--------------------------------|
|--------------------------------|--------------------------------|
 
 |       |       |       |        |       |       |       |        
|--------3---------------5-------|--------0-----------------------|
|--------12--------------13------|--------8-----------------------|
|--------0---------------2-------|--------16----------------------|
|--------------------------------|--------28----------------------|
|--------------------------------|--------------------------------|
|--------------------------------|--------------------------------|


Chorus
 
 |       |       |       |        |       |       |       |        
|3-------0-------0-------0-------|--------------------------------|
|0-------0-------0-------0-------|3-------3-------3-------3-------|
|--------------------------------|--------2-------2-------2-------|
|--------2-------2-------2-------|4-------0-------0-------0-------|
|--------------------------------|--------------------------------|
|--------------------------------|--------------------------------|
 
 |       |       |       |        |       |       |       |        
|0-------3-------3-------3-------|--------------------------------|
|--------3-------3-------3-------|1-------------------------------|
|--------0-------0-------0-------|--------------------------------|
|2-------------------------------|2-------2-------2-------2-------|
|--------------------------------|--------2-------2-------2-------|
|--------------------------------|--------0-------0-------0-------|


Verse

 
 |       |       |       |        |       |       |       |        
|--------------------------------|--------------------------------|
|--------------------------------|--------------------------------|
|--------------------------------|--------------------------------|
|2-------------------------------|0-------------------------------|
|2-------------------------------|0-------------------------------|
|0-------------------------------|--------------------------------|
 
 |       |       |       |        |       |       |       |        
|--------------------------------|--------------------------------|
|--------------------------------|--------------------------------|
|2-------------------------------|--------------------------------|
|2-------------------------------|2-------------------------------|
|0-------------------------------|2-------------------------------|
|--------------------------------|0-------------------------------|


Bridge
 
 |       |       |       |        |       |       |       |        
|--------------------------------|3-------2-------5-------0-------|
|3-------3-------3-------3-------|3-------0-------3-------12------|
|2-------2-------2-------2-------|0-------16------19------21------|
|0-------0-------0-------0-------|--------------------------------|
|--------------------------------|--------------------------------|
|--------------------------------|--------------------------------|


Solo(rhythm guitar part while lead solos)

 
 |       |       |       |        |       |       |       |        
|--------------------------------|--------------------------------|
|1-----------------------1-------|1-----------------------1-------|
|0---2---2---2---2---2---0---2---|0---2---2---2---2---2---0---2---|
|----2---2---2---2---2-------2---|----2---2---2---2---2-------2---|
|3---0---0---0---0---0---3---0---|3---0---0---0---0---0---3---0---|
|--------------------------------|--------------------------------|
 
 |       |       |       |        |       |       |       |        
|--------------------------------|2---3---0---2---0---3---2---0---|
|1-----------------------1-------|1---3---10--0---10--3---1---0---|
|0---2---2---2---2---2---0---2---|----0---2---16--2---0-----------|
|----2---2---2---2---2-------2---|4-----------------------4---2---|
|3---0---0---0---0---0---3---0---|--------------------------------|
|--------------------------------|--------------------------------|
 


_________________________________________________________________________________________


Bass

4/4



Inrto

 |       |       |       |        |       |       |       |        
|0-------------------------------|--------------------------------|
|--------------------------------|3-------------------------------|
|--------------------------------|--------------------------------|
|--------------------------------|--------------------------------|

 |       |       |       |        |       |       |       |        
|7-------------------------------|7-------0---------------2-------|
|--------------------------------|--------------------------------|
|--------------------------------|--------------------------------|
|--------------------------------|--------------------------------|

 
 |       |       |       |        |       |       |       |        
|--------3---------------5-------|--------7---------------0-------|
|--------------------------------|--------------------------------|
|--------------------------------|--------------------------------|
|--------------------------------|--------------------------------|

 

Chorus



 |       |       |       |        |       |       |       |        
|12--0---0---0---0---0---0---0---|10------------------------------|
|--------------------------------|----3---3---3---3---3---3---3---|
|--------------------------------|--------------------------------|
|--------------------------------|--------------------------------|

 |       |       |       |        |       |       |       |        
|5---3---3---3---3---3---3---3---|5---0---0---0---0-----0-0---0---|
|--------------------------------|--------------------------------|
|--------------------------------|--------------------------------|
|--------------------------------|--------------------------------|



Verse

 
 |       |       |       |        |       |       |       |        
|0-------12------7-------15------|--------10------5-------13------|
|--------------------------------|3-------------------------------|
|--------------------------------|--------------------------------|
|--------------------------------|--------------------------------|

 
 |       |       |       |        |       |       |       |        
|2-------14------9-------17------|0-------12------7-------15------|
|--------------------------------|--------------------------------|
|--------------------------------|--------------------------------|
|--------------------------------|--------------------------------|



Bridge

 
 |       |       |       |        |       |       |       |        
|5-------5-------5-------5-------|0-------3-------5-------12------|
|--------------------------------|--------------------------------|
|--------------------------------|--------------------------------|
|--------------------------------|--------------------------------|




Solo (played along with rhythm while lead solos)



                X3
 
 |       |       |       |        |       |       |       |        
|0---0---0---12--0---12--0---12--|2---3---5---7---5---3---2---0---|
|--------------------------------|--------------------------------|
|--------------------------------|--------------------------------|
|--------------------------------|--------------------------------|
Добавлено: 19.07.2015
Другие материалы по этой песне:
  • Аккорды и текст

Страница создана 19.07.2015
http://primanota.ru/misc-unsigned-bands/cjm-12-chords.htm
Привет, Гость.
Предлагаем пройти революционный курс по гитаре.
Подарок от PrimaNota.Ru, забирай!