PrimaNota.ru - самый крупный в мире бесплатный архив песенных текстов, аккордов, табулатур и нот


Misc Unsigned Bands - Bifokes Band - Tulungagungku Jingle - таба

Регистрация Запомнить меня
Войти через:  Facebook Google Twitter Vk Yandex Mail.ru

Misc Unsigned Bands - Bifokes Band - Tulungagungku Jingle - таба

Печатать
Просмотров: 108
                Tulungagungku (jingle)                  


                                            BIFOKES BAND
VERMY



      E   E   E   E   E   E   E   E   
E||----------------------------------|
B||--13------11------10------11------|
G||------10------10------10------10--|
D||----------------------------------|
A||----------------------------------|
E||----------------------------------|


   E   E   E   E   E   E   E   E   
----------------------------------|
--13------11------10------11------|
------10------10------10------10--|
----------------------------------|
----------------------------------|
----------------------------------|


   E   E   E   E   E   E   E   E   
----------------------------------|
--13------11------10------11------|
------10------10------10------10--|
----------------------------------|
----------------------------------|
----------------------------------|


   E   E   E   E   E   E   E   E   
----------------------------------|
--13------11------10------11------|
------10------10------10------10--|
----------------------------------|
----------------------------------|
----------------------------------|


   E   E   E   E   E   E   E   E   
----------------------------------|
--13------11------10------11------|
------10------10------10------10--|
----------------------------------|
----------------------------------|
----------------------------------|


   E   E   E   E   E   E   E   E   
----------------------------------|
--13------11------10------11------|
------10------10------10------10--|
----------------------------------|
----------------------------------|
----------------------------------|


   E   E   E   E   E   E   E   E   
----------------------------------|
--13------11------10------11------|
------10------10------10------10--|
----------------------------------|
----------------------------------|
----------------------------------|


   E   E   E   E   E   E   E   E   
----------------------------------|
--13------11------10------11------|
------10------10------10------10--|
----------------------------------|
----------------------------------|
----------------------------------|


   E   E   E   E   E   E   E   E   
--13------12------10------12------|
------11------11------11------11--|
----------------------------------|
----------------------------------|
----------------------------------|
----------------------------------|


   E   E   E   E   E   E   E   E   
--13------12------10------12------|
------11------11------11----------|
------------------------------10--|
----------------------------------|
----------------------------------|
----------------------------------|


   E   E   E   E   E   E   E   E   
----------------------------------|
--13------11------10------11------|
------10------10------10------10--|
----------------------------------|
----------------------------------|
----------------------------------|


   E   E   E   E   E   E   Q        W                  
--------------------------------|---------------------|
--13------11------10------11----|---------------------|
------10------10------10--------|--10~----------------|
--------------------------------|---------------------|
--------------------------------|---------------------|
--------------------------------|---------------------|


-----|-----|-----|-----|-----|-----|-----|-----|
-----|-----|-----|-----|-----|-----|-----|-----|
-----|-----|-----|-----|-----|-----|-----|-----|
-----|-----|-----|-----|-----|-----|-----|-----|
-----|-----|-----|-----|-----|-----|-----|-----|
-----|-----|-----|-----|-----|-----|-----|-----|


   E   E   E   E   E   E   E   E   
----------------------------------|
--13------11------10------11------|
------10------10------10------10--|
----------------------------------|
----------------------------------|
----------------------------------|


   E   E   E   E   E   E   E   E   
----------------------------------|
--13------11------10------11------|
------10------10------10------10--|
----------------------------------|
----------------------------------|
----------------------------------|


   E   E   E   E   E   E   E   E   
----------------------------------|
--13------11------10------11------|
------10------10------10------10--|
----------------------------------|
----------------------------------|
----------------------------------|


   E   E   E   E   E   E   E   E   
----------------------------------|
--13------11------10------11------|
------10------10------10------10--|
----------------------------------|
----------------------------------|
----------------------------------|


   W                           W                  
---------------------|-----|---------------------|
---------------------|-----|--11~----------------|
--10~----------------|-----|---------------------|
---------------------|-----|---------------------|
---------------------|-----|---------------------|
---------------------|-----|---------------------|


   H          E    E    E   E       W                  
--------------------------------|---------------------|
-------------10h--11p--10-------|---------------------|
--10~----------------------10s--|--10~----------------|
--------------------------------|---------------------|
--------------------------------|---------------------|
--------------------------------|---------------------|


         W                     W                  
-----|---------------------|---------------------|
-----|--11~----------------|--13~----------------|
-----|---------------------|---------------------|
-----|---------------------|---------------------|
-----|---------------------|---------------------|
-----|---------------------|---------------------|


  W                     H         H          
-------------------|--/10-------------------|
--L----------------|-------------10~--------|
-------------------|------------------------|
-------------------|------------------------|
-------------------|------------------------|
-------------------|------------------------|


   H        H           W                   
--/8-----------------|---------------------|
------------8--------|--8s~----------------|
---------------------|---------------------|
---------------------|---------------------|
---------------------|---------------------|
---------------------|---------------------|


  W                      H         H          
--------------------|--/10-------------------|
--8~----------------|-------------10~--------|
--------------------|------------------------|
--------------------|------------------------|
--------------------|------------------------|
--------------------|------------------------|


   H        H            W                   
--/8-----------------|----------------------|
------------8--------|--13s~----------------|
---------------------|----------------------|
---------------------|----------------------|
---------------------|----------------------|
---------------------|----------------------|


                           SH                
   W                       W                 
---------------------|--<>13----------------|
--13~----------------|----------------------|
---------------------|----------------------|
---------------------|----------------------|
---------------------|----------------------|
---------------------|----------------------|


  W                   E   E   E   E   E   E   E   E   
--L----------------|---------------------------------|
-------------------|---------11------10------11------|
-------------------|-----10------10------10------10--|
-------------------|---------------------------------|
-------------------|---------------------------------|
-------------------|---------------------------------|


   E   E   E   E   E   E   E   E   
----------------------------------|
--13------11------10------11------|
------10------10------10------10--|
----------------------------------|
----------------------------------|
----------------------------------|


   E   E   E   E   E   E   E   E   
----------------------------------|
--13------11------10------11------|
------10------10------10------10--|
----------------------------------|
----------------------------------|
----------------------------------|


   E   E   E   E   E   E   E   E   
----------------------------------|
--13------11------10------11------|
------10------10------10------10--|
----------------------------------|
----------------------------------|
----------------------------------|


   E    E    E   E   E   E    Q      
--12s--13~--12----------------------|
----------------13--11--10s--10~----|
------------------------------------|
------------------------------------|
------------------------------------|
------------------------------------|


   E    E    E   E   E   E    Q      
--12s--13~--12----------------------|
----------------13--11--10s--10~----|
------------------------------------|
------------------------------------|
------------------------------------|
------------------------------------|


   E   E   E   E   E   E   E   E   
----------------------------------|
--13------11------10------11------|
------10------10------10------10--|
----------------------------------|
----------------------------------|
----------------------------------|


   E   E   E   E   E   E   Q        W                   
--------------------------------|----------------------|
--13------11------10------11----|----------------------|
------10------10------10--------|--10s~----------------|
--------------------------------|----------------------|
--------------------------------|----------------------|
--------------------------------|----------------------|


   W                  
---------------------|
---------------------|
--10~----------------|
---------------------|
---------------------|
---------------------|


   E   E   E   E   E   E   E   E   
----------------------------------|
--13------11------10------11------|
------10------10------10------10--|
----------------------------------|
----------------------------------|
----------------------------------|


   E   E   E   E   E   E   E   E   
----------------------------------|
--13------11------10------11------|
------10------10------10------10--|
----------------------------------|
----------------------------------|
----------------------------------|


   E   E   E   E   E   E   E   E   
----------------------------------|
--13------11------10------11------|
------10------10------10------10--|
----------------------------------|
----------------------------------|
----------------------------------|


   E   E   E   E   E   E   E   E   
----------------------------------|
--13------11------10------11------|
------10------10------10------10--|
----------------------------------|
----------------------------------|
----------------------------------|


   E    E    E   E   E   E    Q      
--12s--13~--12----------------------|
----------------13--11--10s--10~----|
------------------------------------|
------------------------------------|
------------------------------------|
------------------------------------|


   E    E    E   E   E   E    Q      
--12s--13~--12----------------------|
----------------13--11--10s--10~----|
------------------------------------|
------------------------------------|
------------------------------------|
------------------------------------|


   E   E   E   E   E   E   E   E   
----------------------------------|
--13------11------10------11------|
------10------10------10------10--|
----------------------------------|
----------------------------------|
----------------------------------|


   E   E   E   E   E   E   Q        W                   
--------------------------------|----------------------|
--13------11------10------11----|----------------------|
------10------10------10--------|--10s~----------------|
--------------------------------|----------------------|
--------------------------------|----------------------|
--------------------------------|----------------------|


   W                     W                  
---------------------|---------------------|
---------------------|--11~----------------|
--10~----------------|---------------------|
---------------------|---------------------|
---------------------|---------------------|
---------------------|---------------------|


   W                     W                 
---------------------|--13----------------|
--13~----------------|--------------------|
---------------------|--------------------|
---------------------|--------------------|
---------------------|--------------------|
---------------------|--------------------|


   Q     Q     Q       Q        Q     Q     Q    Q     
---L-----L----13br-----L----|---L-----L-----L----L----|
----------------------------|-------------------------|
----------------------------|-------------------------|
----------------------------|-------------------------|
----------------------------|-------------------------|
----------------------------|-------------------------|


  Q    Q     Q    Q        W                 
--L----L---------------|--13----------------|
------------13----L----|--------------------|
-----------------------|--------------------|
-----------------------|--------------------|
-----------------------|--------------------|
-----------------------|--------------------|


                             PM PM PM PM PM PM PM PM  
  E  E  E  E  E  E  E  E     E  E  E  E  E  E  E  E   
--L-----------------------|--------------------------|
--------------------------|--------------------------|
--------------------------|--------------------------|
--------------------------|--------------------------|
--------------------------|-----1--3--1--0--1--0-----|
--------------------------|--1--------------------1--|


  PM PM PM                    PM PM PM PM PM PM PM PM  
  E  E  E  E   E  E  E  E     E  E  E  E  E  E  E  E   
---------------------------|--------------------------|
---------------------------|--------------------------|
---------------------------|--------------------------|
---------------------------|--------------------------|
---------------------------|-----1--3--1--0--1--0-----|
--0--1--0--3~--L--L--L--L--|--1--------------------1--|


  PM PM PM                    PM PM PM PM PM PM PM PM  
  E  E  E  E   E  E  E  E     E  E  E  E  E  E  E  E   
---------------------------|--------------------------|
---------------------------|--------------------------|
---------------------------|--------------------------|
---------------------------|--------------------------|
---------------------------|-----1--3--1--0--1--0-----|
--5--6--5--1~--L--L--L--L--|--1--------------------1--|


  PM PM PM                    PM PM PM PM PM PM PM PM  
  E  E  E  E   E  E  E  E     E  E  E  E  E  E  E  E   
---------------------------|--------------------------|
---------------------------|--------------------------|
---------------------------|--------------------------|
---------------------------|--------------------------|
---------------------------|-----1--3--1--0--1--0-----|
--0--1--0--3~--L--L--L--L--|--1--------------------1--|


   E  E  E  E  E  E  E  E   
---------------------------|
---------------------------|
---------------------------|
---------------------------|
--/8--L--L--L--7--L--L--L--|
---------------------------|


    E  E  E  E  E  E  E   E   
-----------------------------|
-----------------------------|
--/10--L--L--L--L--L--9------|
-------------------------10--|
-----------------------------|
-----------------------------|


  E  E  E  E  E   E  E   E   
----------------------------|
----------------------------|
--------------9--10--9------|
--L--L--L--L------------10--|
----------------------------|
----------------------------|


    Q     Q     Q    E   E   
----------------------------|
--/13-----L----11----L--10--|
----------------------------|
----------------------------|
----------------------------|
----------------------------|


   Q    E  E  E  E  E  S S  
---------------------------|
---L----L--L--8--L--L--L---|
---------------------------|
---------------------------|
-----------------------8-L-|
---------------------------|


   E  E   E  E   E  E   E   E   
-------------------------------|
---L----------------8--10--11--|
-------------9--10-------------|
------8--10--------------------|
--10---------------------------|
-------------------------------|


   E   E   E  E   E  E  E  E   
------------------------------|
--13--11--10--8---------------|
-----------------10--L--L--L--|
------------------------------|
------------------------------|
------------------------------|


   E    E    E   E   E   E    Q      
--12s--13~--12----------------------|
----------------13--11--10s--10~----|
------------------------------------|
------------------------------------|
------------------------------------|
------------------------------------|


   E    E    E   E   E   E  Q      
--12s--13~--12------12--13--L~----|
----------------13----------------|
----------------------------------|
----------------------------------|
----------------------------------|
----------------------------------|


   E   E   E   E   E   E   E   E   
--17--15--13--15--13--12--13--12--|
----------------------------------|
----------------------------------|
----------------------------------|
----------------------------------|
----------------------------------|


   E   E   E   E   E   E   E  E   
--10--12--10------10-------------|
--------------13------11--10--L--|
---------------------------------|
---------------------------------|
---------------------------------|
---------------------------------|


  S  S  S S  S  S S  S S  S  S S  S  S S S  
-------------------------------------------|
-------------------------------------------|
------------------9-10-9-------------------|
----------8-10-12--------12-10-8-----------|
--8-10-12------------------------12-10-8-7-|
-------------------------------------------|


  S  S  S S  S  S S  S S  S  S S  S  S S S  
-------------------------------------------|
-------------------------------------------|
------------------9-10-9-------------------|
----------8-10-12--------12-10-8-----------|
--8-10-12------------------------12-10-8-7-|
-------------------------------------------|


   E   E   E   E   E   E   E   E   
------13------12------15------12--|
--13------13------13------13------|
----------------------------------|
----------------------------------|
----------------------------------|
----------------------------------|


   E   E   E   E   E   E   E   E   
------13------12------15------12--|
--13------13------13------13------|
----------------------------------|
----------------------------------|
----------------------------------|
----------------------------------|


   E   E   E   E   E   E   E   E   
--13------13--13--15------15--15--|
------13--------------15----------|
----------------------------------|
----------------------------------|
----------------------------------|
----------------------------------|


   E   E   E   E   E   E   E   E   
--17------17--17--18------18--18--|
------17--------------18----------|
----------------------------------|
----------------------------------|
----------------------------------|
----------------------------------|


   W                    W                 
--20~----------------|-------------------|
---------------------|-------------------|
---7-----------------|--3----------------|
---7-----------------|--3----------------|
---5-----------------|--1----------------|
---------------------|-------------------|


  W                   W                 
-------------------|-------------------|
-------------------|-------------------|
--5----------------|--L----------------|
--5----------------|--L----------------|
--3----------------|--L----------------|
-------------------|-------------------|


  W                   W                 
-------------------|-------------------|
-------------------|-------------------|
--7----------------|--3----------------|
--7----------------|--3----------------|
--5----------------|--1----------------|
-------------------|-------------------|


  W                   W                 
-------------------|-------------------|
-------------------|-------------------|
--5----------------|--L----------------|
--5----------------|--L----------------|
--3----------------|--L----------------|
-------------------|-------------------|


  W                   W                 
-------------------|-------------------|
-------------------|-------------------|
--L----------------|--L----------------|
--L----------------|--L----------------|
--L----------------|--L----------------|
-------------------|-------------------|


  E  E  Q    Q    Q       E  E  Q    Q    Q     
-----------------------|-----------------------|
-----------------------|-----------------------|
-----------------------|--3--------------------|
--3--------------------|--3--------------------|
--3--------------------|--1--------------------|
--1--------------------|-----------------------|


  E  E  Q    Q    Q       E  E  Q    Q    Q     
-----------------------|-----------------------|
-----------------------|-----------------------|
-----------------------|--5--------------------|
--5--------------------|--5--------------------|
--5--------------------|--3--------------------|
--3--------------------|-----------------------|


  E  E  Q    Q    Q       E  E  Q    Q    Q     
-----------------------|-----------------------|
-----------------------|-----------------------|
-----------------------|--3--------------------|
--3--------------------|--3--------------------|
--3--------------------|--1--------------------|
--1--------------------|-----------------------|


  E  E  Q    Q    E  E     E  E  E  E  E  E  E  E   
------------------------|--8-----6-----5-----------|
---------------------6--|-----6-----6-----6--8--L--|
------------------------|--------------------------|
--5---------------------|--------------------------|
--5---------------------|--------------------------|
--3---------------------|--------------------------|


   E   E   E   E   E   E   E   E   
----------------------------------|
--13------11------10------11------|
------10------10------10------10--|
----------------------------------|
----------------------------------|
----------------------------------|


   E   E   E   E   E   E   E   E   
----------------------------------|
--13------11------10------11------|
------10------10------10------10--|
----------------------------------|
----------------------------------|
----------------------------------|


   E   E   E   E   E   E   E   E   
----------------------------------|
--13------11------10------11------|
------10------10------10------10--|
----------------------------------|
----------------------------------|
----------------------------------|


   E   E   E   E   E   E   E   E   
----------------------------------|
--13------11------10------11------|
------10------10------10------10--|
----------------------------------|
----------------------------------|
----------------------------------|


   E    E    E   E   E   E    Q      
--12s--13~--12----------------------|
----------------13--11--10s--10~----|
------------------------------------|
------------------------------------|
------------------------------------|
------------------------------------|


   E    E    E   E   E   E    Q      
--12s--13~--12----------------------|
----------------13--11--10s--10~----|
------------------------------------|
------------------------------------|
------------------------------------|
------------------------------------|


   E   E   E   E   E   E   E   E   
----------------------------------|
--13------11------10------11------|
------10------10------10------10--|
----------------------------------|
----------------------------------|
----------------------------------|


   E   E   E   E   E   E   Q        W                   
--------------------------------|----------------------|
--13------11------10------11----|----------------------|
------10------10------10--------|--10s~----------------|
--------------------------------|----------------------|
--------------------------------|----------------------|
--------------------------------|----------------------|


   W                  
---------------------|
---------------------|
--10~----------------|
---------------------|
---------------------|
---------------------|


   E   E   E   E   E   E   E   E   
----------------------------------|
--13------11------10------11------|
------10------10------10------10--|
----------------------------------|
----------------------------------|
----------------------------------|


   E   E   E   E   E   E   E   E   
----------------------------------|
--13------11------10------11------|
------10------10------10------10--|
----------------------------------|
----------------------------------|
----------------------------------|


   E   E   E   E   E   E   E   E   
----------------------------------|
--13------11------10------11------|
------10------10------10------10--|
----------------------------------|
----------------------------------|
----------------------------------|


   E   E   E   E   E   E   E   E   
----------------------------------|
--13------11------10------11------|
------10------10------10------10--|
----------------------------------|
----------------------------------|
----------------------------------|


   E    E    E   E   E   E    Q      
--12s--13~--12----------------------|
----------------13--11--10s--10~----|
------------------------------------|
------------------------------------|
------------------------------------|
------------------------------------|


   E    E    E   E   E   E    Q      
--12s--13~--12----------------------|
----------------13--11--10s--10~----|
------------------------------------|
------------------------------------|
------------------------------------|
------------------------------------|


   E   E   E   E   E   E   E   E   
----------------------------------|
--13------11------10------11------|
------10------10------10------10--|
----------------------------------|
----------------------------------|
----------------------------------|


   E   E   E   E   E   E   Q        W                   
--------------------------------|----------------------|
--13------11------10------11----|----------------------|
------10------10------10--------|--10s~----------------|
--------------------------------|----------------------|
--------------------------------|----------------------|
--------------------------------|----------------------|


   W                     W                  
---------------------|---------------------|
---------------------|--11~----------------|
--10~----------------|---------------------|
---------------------|---------------------|
---------------------|---------------------|
---------------------|---------------------|


   W                     W                 
---------------------|--13----------------|
--13~----------------|--------------------|
---------------------|--------------------|
---------------------|--------------------|
---------------------|--------------------|
---------------------|--------------------|


   Q     Q     Q       Q        Q     Q     Q    Q     
---L-----L----13br-----L----|---L-----L-----L----L----|
----------------------------|-------------------------|
----------------------------|-------------------------|
----------------------------|-------------------------|
----------------------------|-------------------------|
----------------------------|-------------------------|


  Q    Q     Q    Q        W                 
--L----L---------------|--13----------------|
------------13----L----|--------------------|
-----------------------|--------------------|
-----------------------|--------------------|
-----------------------|--------------------|
-----------------------|--------------------|


  E  E  E  E  E  E  E  E   
--L-----------------------|
--------------------------|
--------------------------|
--------------------------|
--------------------------|
--------------------------|


  E  E  E   E  E  E   E   E   
-----------------------------|
-----------------------------|
-----------------------------|
--7--8--9--10--------10--12--|
-----------------------------|
-----------------------------|


   E  E  E  E  E   E   E  E   
-----------------------------|
-----------------------------|
--------------------------9--|
--10--8--------8--10--12-----|
-----------------------------|
-----------------------------|


  E  E   E  E   E  E  E  E                      
----------------------------|-----|-----|-----||
----------------------------|-----|-----|-----||
--------10-----10-----------|-----|-----|-----||
----------------------------|-----|-----|-----||
----------------------------|-----|-----|-----||
----------------------------|-----|-----|-----||




Duration Legend
---------------
W - whole
H - half
Q - quarter
E - 8th
S - 16th
T - 32nd
X - 64th
. - note dotted
|-n-|  - n-tuplets


Tablature Legend
----------------
L - tied note
x - dead note
g - grace note
(n) - ghost note
> - accentuded note
NH - natural harmonic
AH - artificial harmonic
TH - tapped harmonic
SH - semi harmonic
PH - pitch harmonic
h - hammer on
p - pull off
b - bend
br - bendRelease
pb - preBend
pbr - preBendRelease
brb - bendReleaseBend
\n/ - tremolo bar dip
\n - tremolo bar dive
-/n - tremolo bar Release up
/n\ - tremolo bar inverted dip
/n - tremolo bar return
-\n - tremolo bar Release down
S - shift slide
s - legato slide
/ -  slide into from below or out of upwards
\ -  slide into from above or out of downwards
~ - vibrato
W - wide vibrato
tr - trill
TP - tremolo picking
T - tapping
S - slap
P - pop
< - fade in
^ - brush up
v - brush down
Добавлено: 19.07.2015
Другие материалы по этой песне:

Страница создана 19.07.2015
http://primanota.ru/misc-unsigned-bands/bifokes-band-tulungagungku-jingle-chords.htm
Привет, Гость.
Предлагаем пройти революционный курс по гитаре.
Подарок от PrimaNota.Ru, забирай!