PrimaNota.ru - самый крупный в мире бесплатный архив песенных текстов, аккордов, табулатур и нот


Misc Unsigned Bands - Black Pyre - Toasted Bagels - таба

Регистрация Запомнить меня
Войти через:  Facebook Google Twitter Vk Yandex Mail.ru

Misc Unsigned Bands - Black Pyre - Toasted Bagels - таба

Печатать
Просмотров: 90
                     TOASTED BAGELS - Black Pyre

Tuning: Standard E

Beat goes 1, 2, 3, 4 (4/4 time signature) 
Play rhythm with overdrive, full bass about half treble.
Play lead distortion, full bass, about 3/4 treble.
Play bass with no effects.

Intro - Lead
Clean
e|---------------------------------------------------------------------------|
B|---------------------------------------------------------------------------|
G|---------------------------------------------------------------------------|
D|----0-------0-------0-------0-------0-------0-------0-------0-------0------|
A|--0---0---0---0---1---1---1---1---0---0---0---0---1---1---1---1---2---2----|
E|0-------0-------0-------0-------0-------0-------0-------0-------0-------0--|

e|---------------------------------------------------------------------------|
B|---------------------------------------------------------------------------|
G|---------------------------------------------------------------------------|
D|----0-------0-------0-------0-------0-------0-------0----------------------|
A|--2---2---1---1---1---1---0---0---0---0---0---0---0---0--------------------|
E|0-------0-------0-------0-------0-------0-------0--------------------------|

Verse - Lead 
Clean
e|---------------------------------------------------------------------------|
B|---------------------------------------------------------------------------|
G|---------------------------------------------------------------------------|
D|----0-------0-------0-------0-------0-------0-------0-------0--------------|
A|--0---0---0---0---1---1---1---1---2---2---2---2---1---1---1---1------------|
E|0-------0-------0-------0-------0-------0-------0-------0------------------|
Repeat 

Verse - Rhythm
e|---------------------------------------------------------------------------|
B|---------------------------------------------------------------------------|
G|2-----------------3----------------4---------------1-----------------------|
D|2-----------------3----------------4---------------3-----------------------|
A|0-----------------1----------------2---------------3-----------------------|
E|---------------------------------------------------------------------------|
Repeat in time with lead

Verse - Bass
e|---------------------------------------------------------------------------|
B|---------------------------------------------------------------------------|
G|---------------------------------------------------------------------------|
D|---------------------------------------------------------------------------|
A|---------------------------------------------------------------------------|
E|0--0--0--0--0--0--0--0--1--1--1--1--1--1--1--1--2--2--2--2--2--2--2--2-----|

e|---------------------------------------------------------------------------|
B|---------------------------------------------------------------------------|
G|---------------------------------------------------------------------------|
D|---------------------------------------------------------------------------|
A|---------------------------------------------------------------------------|
E|1--1--1--1--1--1--1--1-----------------------------------------------------|
Repeat in time with lead

Bridge - Lead
e|---------------------------------------------------------------------------|
B|---------------------------------------------------------------------------|
G|---------------------------------------------------------------------------|
D|---------------------------------------------------------------------------|
A|---------------------------------------------------------------------------|
E|0--0--3--3--0--0--5--5--0--0--7--7--0--0--5--5-----------------------------|
Repeat 

Bridge - Rhythm
e|--3--|
B|--3--|
G|--3--|  [x32] To the beat of 1 2, 3 4 . 1 2, 3 4 . 1 2, 3 4 5 6 7 8 
D|--5--|  Then [x8] To the beat of 1 2 3 4 5 6 7 8 
A|--5--|
E|--3--|
Gm Muted

Chorus - Lead
e|---------------------------------------------------------------------------|
B|---------------------------------------------------------------------------|
G|---------------------------------------------------------------------------|
D|---------------------------------------------------------------------------|
A|------------------------------------------------3--3--3--3--3--3--3--3-----|
E|3--3--3--3--3--3--3--3--2--2--2--2--2--2--2--2-----------------------------|

e|---------------------------------------------------------------------------|
B|---------------------------------------------------------------------------|
G|---------------------------------------------------------------------------|
D|---------------------------------------------------------------------------|
A|2--2--2--2--2--2--2--2--SMALL PICK SLIDE-----------------------------------|
E|---------------------------------------------------------------------------|
Repeat in time to rhythm [x7]
For last chorus line use
e|---------------------------------------------------------------------------|
B|---------------------------------------------------------------------------|
G|---------------------------------------------------------------------------|
D|---------------------------------------------------------------------------|
A|------------------------------------------------3--3--3--3--3--3--3--3-----|
E|3--3--3--3--3--3--3--3--2--2--2--2--2--2--2--2-----------------------------|

e|---------------------------------------------------------------------------|
B|---------------------------------------------------------------------------|
G|---------------------------------------------------------------------------|
D|---------------------------------------------------------------------------|
A|5--5--5--5--5--5--5--5-----------------------------------------------------|
E|---------------------------------------------------------------------------|


Chorus - Rhythm
e|-----|
B|-----|
G|-----| F6
D|--3--|
A|--3--|
E|--1--|

e|-----|
B|-----|
G|-----| G6
D|--5--|
A|--5--|
E|--3--|

e|-----|
B|-----|
G|-----| E6
D|--2--|
A|--2--|
E|--0--|

F6 [x8]
G6 [x8]   <-- Repeat this
F6 [x8]
E6 [x8]

Chorus - Bass
e|---------------------------------------------------------------------------|
B|---------------------------------------------------------------------------|
G|---------------------------------------------------------------------------|
D|---------------------------------------------------------------------------|
A|---------------------------------------------------------------------------|
E|1--1--1--1--1--1--1--1--3--3--3--3--3--3--3--3--1--1--1--1--1--1--1--1-----|

e|---------------------------------------------------------------------------|
B|---------------------------------------------------------------------------|
G|---------------------------------------------------------------------------|
D|---------------------------------------------------------------------------|
A|---------------------------------------------------------------------------|
E|0--0--0--0--0--0--0--0-----------------------------------------------------|
Repeat

Solo - Lead
e|---------------------------------------------------------------------------|
B|---------------------------------------------------------------------------|
G|---------------------------------------------------------------------------|
D|---------------------------------------------------------------------------|
A|---------------------------------------------------------------------------|
E|--0--0--0--5/6--6--5/6--6--0--0--0--3/4--4--3/4--4--0--0--0--1/2--2h/12----|

e|---------------------------------------------------------------------------|
B|---------------------------------------------------------------------------|
G|---------------------------------------------------------------------------|
D|---------------------------------------------------------------------------|
A|--0--0--0--5/6--6--5/6--6--0--0--0--3/4--4--3/4--4--0--0--0--1/2--2~~------|
E|---------------------------------------------------------------------------|

e|---------------------------------------------------------------------------|
B|---------------------------------------------------------------------------|
G|---------------------------------------------------------------------------|
D|---------------------------------------------------------------------------|
A|--5~~7~~12~~~~~~~~~~~-PICK SLIDE-------------------------------------------|
E|---------------------------------------------------------------------------|

Solo - Rhythm 
e|---------------------------------------------------------------------------|
B|---------------------------------------------------------------------------|
G|------------2--2--2--2-----------------------------------------------------|
D|2--2--2--2--2--2--2--2--2--2--2--2--5--5--5--5--2--2--2--2--3--3--3--3-----|
A|2--2--2--2--0--0--0--0--2--2--2--2--5--5--5--5--2--2--2--2--3--3--3--3-----|
E|0--0--0--0--------------0--0--0--0--3--3--3--3--0--0--0--0--1--1--1--1-----|
PMed
e|---------------------------------------------------------------------------|
B|---------------------------------------------------------------------------|
G|---------------------------------------------------------------------------|
D|3--3--3--3--3--3--3--3-----------------------------------------------------|
A|3--3--3--3--3--3--3--3-----------------------------------------------------|
E|1--1--1--1--1--1--1--1-----------------------------------------------------|
Fully muted
e|---------------------------------------------------------------------------|
B|------------3--3--3--3-----------------------------------------------------|
G|2--2--2--2--2--2--2--2--2--2--2--2--5--5--5--5--2--2--2--2--3--3--3--3-----|
D|2--2--2--2--0--0--0--0--2--2--2--2--5--5--5--5--2--2--2--2--3--3--3--3-----|
A|0--0--0--0--------------0--0--0--0--3--3--3--3--0--0--0--0--1--1--1--1-----|
E|---------------------------------------------------------------------------|
PMed
e|---------------------------------------------------------------------------|
B|---------------------------------------------------------------------------|
G|3--3--3--3--3--3--3--3-----------------------------------------------------|
D|3--3--3--3--3--3--3--3-----------------------------------------------------|
A|1--1--1--1--1--1--1--1-----------------------------------------------------|
E|---------------------------------------------------------------------------|
Fully muted

Solo - Bass
e|---------------------------------------------------------------------------|
B|---------------------------------------------------------------------------|
G|---------------------------------------------------------------------------|
D|---------------------------------------------------------------------------|
A|------------0--0--0--0-----------------------------------------------------|
E|0--0--0--0--------------0--0--0--0--3--3--3--3--0--0--0--0--1--1--1--1-----|

e|---------------------------------------------------------------------------|
B|---------------------------------------------------------------------------|
G|---------------------------------------------------------------------------|
D|---------------------------------------------------------------------------|
A|---------------------------------------------------------------------------|
E|1--1--1--1--1--1--1--1-----------------------------------------------------|

e|---------------------------------------------------------------------------|
B|---------------------------------------------------------------------------|
G|---------------------------------------------------------------------------|
D|------------0--0--0--0-----------------------------------------------------|
A|0--0--0--0--------------0--0--0--0--3--3--3--3--0--0--0--0--1--1--1--1-----|
E|---------------------------------------------------------------------------|

e|---------------------------------------------------------------------------|
B|---------------------------------------------------------------------------|
G|---------------------------------------------------------------------------|
D|---------------------------------------------------------------------------|
A|1--1--1--1--1--1--1--1-----------------------------------------------------|
E|---------------------------------------------------------------------------|


Alt Verse - Lead only
Soft picking to beat of verse (pick each note when you'd do the A string notes during verse)
e|---------------------------------------------------------------------------|
B|---------------------------------------------------------------------------|
G|---------------------------------------------------------------------------|
D|---------------------------------------------------------------------------|
A|--0--0--1--1--2--2--1--1---------------------------------------------------|
E|---------------------------------------------------------------------------|
Repeat

Outro - Lead only
e|---------------------------------------------------------------------------|
B|---------------------------------------------------------------------------|
G|---------------------------------------------------------------------------|
D|2------2-------------2-----p-----------------------------------------------|
A|2------2---------2---------p-----------------------------------------------|
E|0------0------0------------------------------------------------------------|
Hold those last 2s both, then pull off at that same time


Song Order
- Intro
- Verse
- Bridge
- Chorus
- Verse
- Bridge
- Chorus
- Solo
- Alt Verse
- Chorus
- Outro

h  = Hold
/  = Slide to
p  = Pull off
~  = Vibrato
PM = Palm mute
Добавлено: 19.07.2015
Другие материалы по этой песне:
  • Аккорды и текст

Страница создана 19.07.2015
http://primanota.ru/misc-unsigned-bands/black-pyre-toasted-bagels-chords.htm
Привет, Гость.
Предлагаем пройти революционный курс по гитаре.
Подарок от PrimaNota.Ru, забирай!