PrimaNota.ru - самый крупный в мире бесплатный архив песенных текстов, аккордов, табулатур и нот


Misc Unsigned Bands - Beartooth - The Lines - таба

Регистрация Запомнить меня
Войти через:  Facebook Google Twitter Vk Yandex Mail.ru

Misc Unsigned Bands - Beartooth - The Lines - таба

Печатать
Просмотров: 134
Heres my quick attempt at 'Beccar + James Weaver's cover of 'The lines' by Beartooth

Its not totally accurate but it sounds ok, you can get the strum pattern from the song!

Tuning:

D#
A#
F#
C#
G#
C#

Intro (not sure if muting the low C# on the first chord sounds better or not!)

D#--0-----0-----0---|
A#--0-----0-----3---|
F#--9-----5-----5---|   x2
C#--9-----7-----5---|
G#--7-----7-----3---|
C#--9-----7---------|


Verse

D#--0---0-----0---0---0---0----0---0--0---0~--|
A#--0---0-----3---0---0---0----3---0--0---0~--|
F#--9---14----5---7---9---14---5---7--4---9~--|
C#--9---14----5---7---9---14---5---7--4---9~--|
G#--7---12----3---5---7---12---3---5--2---7~--|
C#--9---14----------------14------------------|


Chorus

D#--0---0---0---0--|
A#--3---0---0---0--|
F#--5---9---7---5--|
C#--5---9---7---7--|  x2
G#--3---7---5---7--|
C#--------------7--|

Play intro once

Play the verse

Play the Chorus

Bridge

D#--0---0----0---0--|
A#--0---0----0---3--|
F#--9---12---7---5--|
C#--9---12---7---5--|  x2
G#--7---10---5---3--|
C#------------------|


quite part (let ring)

D#--0~---0~---0~--|
A#--0~---0~---0~--|
F#--9~---5~---4~--|
C#--9~---7~---4~--|
G#--7~---7~---2~--|
C#-------7~-------|

Play the Chorus x2

End on

D#--0--
A#--0--
F#--9--
C#--9--
G#--7--
C#-----
Добавлено: 11.06.2015
Другие материалы по этой песне:
  • Аккорды и текст

Страница создана 11.06.2015
http://primanota.ru/misc-unsigned-bands/beartooth-lines-chords.htm
Привет, Гость.
Предлагаем пройти революционный курс по гитаре.
Подарок от PrimaNota.Ru, забирай!