PrimaNota.ru - самый крупный в мире бесплатный архив песенных текстов, аккордов, табулатур и нот


Misc Unsigned Bands - Camcam - u Now - таба, видео

Регистрация Запомнить меня
Войти через:  Facebook Google Twitter Vk Yandex Mail.ru

Misc Unsigned Bands - Camcam - u Now - таба, видео

Печатать
Просмотров: 54
-------------------------------------------------------------------------------
                             SONG NAME - Band Name
-------------------------------------------------------------------------------
Tabbed by: DarveL
E-mail:

Tuning:

e|-----------------------------7---------------------------------------------|
B|-----8-8-7-8----10-10-8-7------10-8-7--------------------------------------|
G|--------------------------0------------------------------------------------|
D|---------------------------0-----------------------------------------------|
A|-7-7----------------------------------7------------------------------------|
E|-------------2-------------------------------------------------------------|




************************************

| /   slide up
| \   slide down
| h   hammer-on
| p   pull-off
| ~   vibrato
| +   harmonic
| x   Mute note
| b   Bend
| pb  Pre-bend
| br  Bend release
| pbr Pre-bend release
| brb Bend release bend

************************************
Добавлено: 30.06.2015
Другие материалы по этой песне:
  • Аккорды и текст

Страница создана 30.06.2015
http://primanota.ru/misc-unsigned-bands/camcam-u-now-chords.htm
Привет, Гость.
Предлагаем пройти революционный курс по гитаре.
Подарок от PrimaNota.Ru, забирай!