PrimaNota.ru - самый крупный в мире бесплатный архив песенных текстов, аккордов, табулатур и нот


Misc Unsigned Bands - Axile - Funeral - таба

Регистрация Запомнить меня
Войти через:  Facebook Google Twitter Vk Yandex Mail.ru

Misc Unsigned Bands - Axile - Funeral - таба

Печатать
Просмотров: 74
(/) Slide Up  (\) Slide Down  (h) Hammer On  (p) Pull Off  (b) Bend (r) Release (v) Vibrato

DROP D TUNING (


Stave 1:Verse [x3] (The first time, arpeggio)

E|---------------------------------------------------------------------------------|
B|---------------------------------------------------------------------------------|
G|---------------------------------------------------------------------------------|
D|--5--5--5--5--5--0--8--8--8--8--8--0--1--1--1--1--1--0----0--0--0--0--0--0-------|
A|--5--5--5--5--5--0--8--8--8--8--8--0--1--1--1--1--1--0----0--0--0--0--0--0-------|
E|--5--5--5--5--5--0--8--8--8--8--8--0--1--1--1--1--1--0----0--0--0--0--0--0-------|


Stave 1:Verse [x4]

E|---------------------------------------------------------------------------------|
B|---------------------------------------------------------------------------------|
G|---------------------------------------------------------------------------------|
D|--5--5--5--5--5--0--8--8--8--8--8--0--1--1--1--1--1--0----0--0--0--0--0--0-------|
A|--5--5--5--5--5--0--8--8--8--8--8--0--1--1--1--1--1--0----0--0--0--0--0--0-------|
E|--5--5--5--5--5--0--8--8--8--8--8--0--1--1--1--1--1--0----0--0--0--0--0--0-------|

I missed your funeral today. Now I sit here and wait. Your veins did fluctuate. Now I sit here and wait.


Stave 2:Chorus [x2]

E|--------------------------------|
B|--------------------------------|
G|--------------------------------|
D|--5--8--5--8--5--8--5--8--3--1--|
A|--5--8--5--8--5--8--5--8--3--1--|
E|--5--8--5--8--5--8--5--8--3--1--|

You knew, You knew, You knew, You were so stupid [x2]


Stave 1:Verse [x4]

E|---------------------------------------------------------------------------------|
B|---------------------------------------------------------------------------------|
G|---------------------------------------------------------------------------------|
D|--5--5--5--5--5--0--8--8--8--8--8--0--1--1--1--1--1--0----0--0--0--0--0--0-------|
A|--5--5--5--5--5--0--8--8--8--8--8--0--1--1--1--1--1--0----0--0--0--0--0--0-------|
E|--5--5--5--5--5--0--8--8--8--8--8--0--1--1--1--1--1--0----0--0--0--0--0--0-------|

You made some people cry today. Now while their hearts break. You lie dead in your 
grave. Now I sit here and wait.


Stave 2:Chorus [x3]

E|--------------------------------|
B|--------------------------------|
G|--------------------------------|
D|--5--8--5--8--5--8--5--8--3--1--|
A|--5--8--5--8--5--8--5--8--3--1--|
E|--5--8--5--8--5--8--5--8--3--1--|

You knew. [x2]


Stave 3: [x1]

E|-------------------5--|
B|----------------7-----|
G|-------------7--------|
D|----------5-----------|
A|-------5--------------|
E|----5-----------------|

You knew.
Добавлено: 19.07.2015
Другие материалы по этой песне:
  • Аккорды и текст

Страница создана 19.07.2015
http://primanota.ru/misc-unsigned-bands/axile-funeral-chords.htm
Привет, Гость.
Предлагаем пройти революционный курс по гитаре.
Подарок от PrimaNota.Ru, забирай!