PrimaNota.ru - самый крупный в мире бесплатный архив песенных текстов, аккордов, табулатур и нот


Misc Unsigned Bands - City Of Ifa - Beach Demon - таба

Регистрация Запомнить меня
Войти через:  Facebook Google Twitter Vk Yandex Mail.ru

Misc Unsigned Bands - City Of Ifa - Beach Demon - таба

Печатать
Просмотров: 41
-------------------------------------------------------------------------------
                             BEACH DEMON - City of Ifa
-------------------------------------------------------------------------------
Tabbed by: Dallboi
Email: dallboi@hotmail.com

Tuning: EADGBe (Standard)
Capo On Fret 2

E  :----------------|2---2-2---2---2-|--2-2---2-2-2-2-|2---2---2---2-2-|
B  :----------------|2---2-2---2---2-|--2-2---2-2-2-2-|2---2---2---2-2-|
G  :----------------|2---2-2---2---2-|--2-2---2-2-2-2-|2---2---2---2-2-|
D  :----------------|5---5-5---5---5-|--5-5---4-4-4-4-|7---7---7---7-7-|
A  :----------------|5---5-5---5---2-|--2-2---2-2-2-2-|2---2---2---2-2-|
E  :----------------|3---3-3---3---7-|--7-7---5-5-5-5-|9---9---9---9-9-|
 
E  :2-2-2-2-2-2-2-2-|2-------2-2-2-2-|2-2-2-----2-----|2---2-----------|
B  :2-2-2-2-2-2-2-2-|2-------2-2-2-2-|2-2-2-----2-----|2---2-----------|
G  :2-2-2-2-2-2-2-2-|2-------2-2-2-2-|2-2-2-----2-----|2---2-----------|
D  :4-4-4-4-4-4-4-4-|4-------2-2-2-2-|2-2-9-----9-----|9-x-9-----------|
A  :2-2-2-2-5-5-5-5-|4-------2-2-2-2-|2-2-9-----9-----|9-x-9-----------|
E  :5-5-5-5-2-2-2-2-|2-------3-3-3-3-|3-3-7-----7-----|7-x-7-----------|
 

E  :-2--2--2--2--2----2--2-|---2----2----2--2---|--2-2-x-2-2-2-2-|
B  :14-14-14-14-14---12-12-|--12---12---12-12---|--2-2-x-2-2-2-2-|
G  :-2--2--2--2--2-x--2--2-|---2----2----2--2---|x-7-7-x-2-2-2-2-|
D  :12-12-12-12-12-x-11-11-|--11---11---11-11---|x-9-9-x-7-7-7-7-|
A  :-2--2--2--2--2-x--2--2-|*--2-*--2-*--2--2-*-|x-2-2-x-9-9-9-9-|
E  :-2--2--2--2--2-x-------|--------------------|--------2-2-2-2-|
 
E  :----------------|----------------|--------------------|
B  :2-2-2-2-2-2-2-2-|----------------|--------------------|
G  :9-9-9-9-7-7-7-7-|9-7-2-----------|9-11-2--------------|
D  :2-2-2-2-2-2-2-2-|------7-9-7-----|-------11-2-2-2-9-2-|
A  :9-9-9-9-9-9-9-9-|------------9---|--------------------|
E  :2-2-2-2-2-2-2-2-|----------------|--------------------|
 
E  :10-7-2-------------------12-14-|2---------7-5-2----------|
B  :-------------7-9-2-7-5-2-------|--14-12-2-------7-5-2----|
G  :-------7-9-2-------------------|----------------------7-5|
D  :-------------------------------|-------------------------|
A  :-------------------------------|-------------------------|
E  :-------------------------------|-------------------------|
 
E  :--------------------------|----------------|-----------------|
B  :--------------------------|----------------|-----------------|
G  :2-------------------------|------------2---|4-6----2-----2-2-|
D  :--9-7-2-------------------|------4---------|-------4-----4-4-|
A  :--------9-7-2-------------|5---------------|-----------------|
E  :--------------9-7-2-3-5-2-|----------------|-----------------|
 
E  :--------------------------------|----------------|2---2-2---2---2-|
B  :--------------------------------|----------------|2---2-2---2---2-|
G  :--------------------------------|----------------|2---2-2---2---2-|
D  :(2)-(2)-(2)-(2)-(2)-(2)-(2)-(2)-|2-2---2---2-----|5---5-5---5---5-|
A  :(3)-(3)-(3)-(3)-(3)-(3)-(3)-(3)-|5-5---5---5-----|5---5-5---5---2-|
E  :(5)-(5)-(5)-(5)-(5)-(5)-(5)-(5)-|6-6---6---6-----|3---3-3---3---7-|
 
E  :--2-2---2-2-2-2-|2---2---2---2-2-|2-2-2-2-2-2-2-2-|2-------2-2-2-2-|
B  :--2-2---2-2-2-2-|2---2---2---2-2-|2-2-2-2-2-2-2-2-|2-------2-2-2-2-|
G  :--2-2---2-2-2-2-|2---2---2---2-2-|2-2-2-2-2-2-2-2-|2-------2-2-2-2-|
D  :--5-5---4-4-4-4-|7---7---7---7-7-|4-4-4-4-4-4-4-4-|4-------2-2-2-2-|
A  :--2-2---2-2-2-2-|2---2---2---2-2-|2-2-2-2-5-5-5-5-|4-------2-2-2-2-|
E  :--7-7---5-5-5-5-|9---9---9---9-9-|5-5-5-5-2-2-2-2-|2-------3-3-3-3-|
 
E  :2-2-2-----2-----|2---2-----------|-2--2--2--2--2----2--2-|
B  :2-2-2-----2-----|2---2-----------|14-14-14-14-14---12-12-|
G  :2-2-2-----2-----|2---2-----------|-2--2--2--2--2-x--2--2-|
D  :2-2-9-----9-----|9-x-9-----------|12-12-12-12-12-x-11-11-|
A  :2-2-9-----9-----|9-x-9-----------|-2--2--2--2--2-x--2--2-|
E  :3-3-7-----7-----|7-x-7-----------|-2--2--2--2--2-x-------|
 
E  :---2----2----2--2---|--2-2-x-2-2-2-2-|----------------|----------------|
B  :--12---12---12-12---|x-2-2-x-2-2-2-2-|2-2-2-2-2-2-2-2-|----------------|
G  :---2----2----2--2---|x-7-7-x-2-2-2-2-|9-9-9-9-7-7-7-7-|9-7-2-----------|
D  :--11---11---11-11---|x-9-9-x-7-7-7-7-|2-2-2-2-2-2-2-2-|------7-9-7-----|
A  :*--2-*--2-*--2--2-*-|x-2-2-x-9-9-9-9-|9-9-9-9-9-9-9-9-|------------9---|
E  :--------------------|--------2-2-2-2-|2-2-2-2-2-2-2-2-|----------------|
 
E  :--------------------|10-7-2-------------------12-14-|
B  :--------------------|-------------7-9-2-7-5-2-------|
G  :9-11-2--------------|-------7-9-2-------------------|
D  :-------11-2-2-2-9-2-|-------------------------------|
A  :--------------------|-------------------------------|
E  :--------------------|-------------------------------|
 
E  :2---------7-5-2----------|--------------------------|----------------|
B  :--14-12-2-------7-5-2----|--------------------------|----------------|
G  :----------------------7-5|2-------------------------|------------2---|
D  :-------------------------|--9-7-2-------------------|------4---------|
A  :-------------------------|--------9-7-2-------------|5---------------|
E  :-------------------------|--------------9-7-2-3-5-2-|----------------|
 
E  :-----------------|--------------------------------|----------------|
B  :-----------------|--------------------------------|----------------|
G  :4-6----2-----2-2-|--------------------------------|----------------|
D  :-------4-----4-4-|(2)-(2)-(2)-(2)-(2)-(2)-(2)-(2)-|2-2---2---2-----|
A  :-----------------|(3)-(3)-(3)-(3)-(3)-(3)-(3)-(3)-|5-5---5---5-----|
E  :-----------------|(5)-(5)-(5)-(5)-(5)-(5)-(5)-(5)-|6-6---6---6-----|
 
E  :2-2-2-2-2-2-2-x-|-2---x--2---x--2---|-2--2------2--2--2--2-|
B  :7-7-7-7-7-7-7-x-|12---x-12---x-12---|12-12---x-12-12-12-12-|
G  :2-2-2-2-2-2-2-x-|-2---x--2---x--2---|-2--2---x--2--2--2--2-|
D  :6-6-6-6-6-6-6-x-|11---x-11---x-11---|11-11---x-11-11-11-11-|
A  :7-7-7-7-7-7-7-x-|12---x-12---x-12---|12-12---x-12-12-12-12-|
E  :----------------|-------------------|----------------------|
 
E  :----2-2-2-2-2-2-|2-------2-------|2-------2-------|----------------|
B  :----5-5-5-5-5-5-|2-------2-------|2-------2-------|----------------|
G  :----2-2-2-2-2-2-|2-------2-------|2-------2-------|----------2-----|
D  :----4-4-4-4-4-4-|2-------2-------|2-------2-------|----------4-----|
A  :----5-5-5-5-5-5-|4-------4-------|4-------4-------|4-5-2-----------|
E  :----------------|5-------5-------|5-------5-------|------5-2-----7-|
 
E  :----------------|---------2-------|----------------|-------------2---|
B  :----------------|2--------2-------|----2---------2-|--2----------2---|
G  :----------------|2--------2-------|----2---------2-|--2----------2---|
D  :----2-----------|4-------12-------|----4---------4-|--4---------12---|
A  :----2-----------|-----------------|----------------|-----------------|
E  :5-2-4-----------|-----------------|----------------|-----------------|
 
E  :----------------|-----2--------2---|-----2--------2---|
B  :--------2-------|-----2-------14---|----12-------12---|
G  :--------2-------|-----2--------2---|-----2-------14---|
D  :--------4-------|----12-------12---|-----2--------2---|
A  :----------------|------------------|------------------|
E  :----------------|------------------|------------------|
 
E  :-2---------------|12-14-2---------------|--------------------|
B  :12---------------|--------12-14-2-------|--------------------|
G  :13---------------|----------------14-13-|2-------------------|
D  :-2---------------|----------------------|--14-2--------------|
A  :-----------------|----------------------|-------14-2---------|
E  :-----------------|----------------------|------------14-12---|
 
E  :-----2--2--2--2--2--2-|---------2--2-----|---2--2--2----2--2--2-|
B  :-----2--2--2--2--2--2-|---------2--2-----|---2--2--2----2--2--2-|
G  :--x-14-14-14-14-14-14-|--------14-14-----|--13-13-13---13-13-13-|
D  :--x-11-11-11-11-11-11-|--------11-11-----|--11-11-11---11-11-11-|
A  :--x--2--2--2--2--2--2-|---------2--2-----|---2--2--2----2--2--2-|
E  :--x-12-12-12-12-12-12-|*-------12-12-*---|--12-12-12-*-12-12-12-|
 
E  :---2--2--2----2--2--2-|2-2-2-2-2-2-2-2-|2-2-2-2-2-2-2-2-|
B  :---2--2--2----2--2--2-|2-2-2-2-2-2-2-2-|2-2-2-2-2-2-2-2-|
G  :--13-13-13---13-13-13-|6-6-6-6-6-6-6-6-|7-7-7-7-7-7-7-7-|
D  :--11-11-11---11-11-11-|4-4-4-4-4-4-4-4-|4-4-4-4-4-4-4-4-|
A  :---2--2--2----2--2--2-|2-2-2-2-2-2-2-2-|2-2-2-2-2-2-2-2-|
E  :*-12-12-12-*-12-12-12-|5-5-5-5-5-5-5-5-|5-5-5-5-5-5-5-5-|
 
E  :--2-2-----2-2---|----------------|----------------|----------------|
B  :--2-2-----2-2---|----------------|----------------|----------------|
G  :x-6-6---x-6-6---|2-2-2-2---2---2-|2-2-2-2-2-2-2-2-|----------------|
D  :x-4-4---x-4-4---|4-4-4-4---4---4-|4-4-4-4-4-4-4-4-|7-7---7---7---7-|
A  :x-2-2---x-2-2---|5-5-5-5---5---5-|5-5-5-5-5-5-5-5-|2-2---2---2---2-|
E  :x-5-5-*-x-5-5-*-|3-3-3-3---3---3-|2-2-2-2-2-2-2-2-|9-9---9---9---9-|
 
E  :----------------|----------------|----------------|------------------|
B  :----------------|----------------|----------------|------------------|
G  :----------------|----------------|----------------|------------------|
D  :5-5---5---5---5-|4-4---4---4---4-|----4-----4-----|4-4-4-4-5-4-2-----|
A  :2-2---2---2---2-|2-2---2---2---2-|----2-----2-----|5-5-5-5-------5-2-|
E  :7-7---7---7---7-|5-5---5---5---5-|----5-----5-----|3-3-3-3-----------|
 
E  :-----------------|----------------------|------------------|
B  :-----------------|----------------------|------------------|
G  :--------------6-4|2---------------------|------------------|
D  :------4-4-4-4----|--------------4-4-4-4-|5-4-2-----------4-|
A  :------5-5-5-5----|--4-5-2-------5-5-5-5-|------5-2-------5-|
E  :5-2---2-2-2-2----|--------7-5-2-3-3-3-3-|----------5-2---2-|
 
E  :------------------------|----------------|----5-7-2-12-14-2-|
B  :------------------------|----------------|------------------|
G  :------6-4-2-------------|--------------7-|9-2---------------|
D  :4-4-4-------------------|5---------------|------------------|
A  :5-5-5-------4-5-2-------|2-------5-7-2---|------------------|
E  :2-2-2-------------7-5-2-|7---------------|------------------|
 
E  :-------------------|----------------|----------------|----------------|
B  :12-14-2------------|----------------|----------------|----------------|
G  :--------9-11-2-----|----------------|----------------|----------------|
D  :---------------7---|--5-----4-------|------------7---|--4-----5-------|
A  :---------------2---|--2-----2-------|----------------|----------------|
E  :---------------9---|--7-----5-------|------------9---|--5-----7-------|
 
E  :----------------|----------------|----------------|----------------|
B  :----------------|----------------|----------------|----------------|
G  :----------------|----------------|----------------|----------------|
D  :----5-------5---|----5-------7---|*-5---*-4-------|----7-----4-----|
A  :----------------|----------------|*-----*---------|----------------|
E  :7-------7-------|7-------7---9---|*-7---*-5-------|----9-----5-----|
 
E  :----------------|----------------|----------------|----------------|
B  :----------------|----------------|----------------|----------------|
G  :----------------|----------------|----------------|----------------|
D  :5---------------|----------------|----7---*-5---*-|4---------------|
A  :----------------|----------------|--------*-----*-|----------------|
E  :7---------------|----------------|----9---*-7---*-|5---------------|
 
E  :----------------|----5-7-2-12-14-2-|-------------------|
B  :----------------|------------------|12-14-2------------|
G  :--------------7-|9-2---------------|--------9-11-2-----|
D  :5---------------|------------------|---------------7---|
A  :2-------5-7-2---|------------------|---------------2---|
E  :7---------------|------------------|---------------9---|
 
E  :----------------|12-14-2---------------|-------------------|
B  :----------------|--------14-12-2-------|-------------------|
G  :----------------|----------------13-14-|2------------------|
D  :--5-----4-------|----------------------|--14-2------9-11-9-|
A  :--2-----2-------|----------------------|-------14-2--------|
E  :--7-----5-------|----------------------|-------------------|
 
E  :----------------|----------------|----------------|------12-14-2-------|
B  :----------------|--2-2-2-2-2-2---|----------------|--------------14-12-|
G  :------2-2-2-2-2-|2-9-9-9-9-9-9-7-|7-7-7-7-7-7-7-7-|7-7-7---------------|
D  :7-9-7-7-7-7-7-7-|7-7-7-7-7-7-7-9-|9-9-9-9-9-2-2-2-|2-2-2---------------|
A  :------9-9-9-9-9-|9-9-9-9-9-9-9-2-|2-2-2-2-2-9-9-9-|9-9-9---------------|
E  :------2-2-2-2-2-|2-2-2-2-2-2-2-2-|2-2-2-2-2-2-2-2-|2-2-2---------------|
 
E  :--------------------|-----------------|----------------|
B  :2-------------------|-----------------|--------2-2-2-2-|
G  :--13-14-2-----------|-------------2-2-|2-2-2-2-9-9-9-9-|
D  :----------14-2------|9-11-9-7-9-7-7-7-|7-7-7-7-7-7-7-7-|
A  :---------------14-2-|-------------9-9-|9-9-9-9-9-9-9-9-|
E  :--------------------|-------------2-2-|2-2-2-2-2-2-2-2-|
 
E  :----------------|----------------|7-7-7-7-9-7-2-5-5-|
B  :2-2-------------|----------------|2-2-2-2-------2-2-|
G  :9-9-7-7-7-7-7-7-|7-7-7-7-7-7-x-x-|2-2-2-2-------2-2-|
D  :7-7-9-9-9-9-9-9-|2-2-2-2-2-2-x-x-|9-9-9-9-------7-7-|
A  :9-9-2-2-2-2-2-2-|9-9-9-9-9-9-x-x-|------------------|
E  :2-2-2-2-2-2-2-2-|2-2-2-2-2-2-x-x-|------------------|
 
E  :5-5-7-5-2--------12-12-|12-12-12-12-4-4-4-4-|4-4-4-4-4-4-7-7-|
B  :2-2-------7-5-2---2--2-|-2--2--2--2-2-2-2-2-|2-2-2-2-2-2-2-2-|
G  :2-2---------------2--2-|-2--2--2--2-2-2-2-2-|2-2-2-2-2-2-2-2-|
D  :7-7--------------14-14-|14-14-14-14-6-6-6-6-|6-6-6-6-6-6-9-9-|
A  :-----------------------|--------------------|----------------|
E  :-----------------------|--------------------|----------------|
 
E  :7-7-9-7-2-5-5-5-5-|7-5-2--------12-12-12-12-|12-12-4-4-4-4--9--9-|
B  :2-2-------2-2-2-2-|------7-5-2---2--2--2--2-|-2--2-2-2-2-2--2--2-|
G  :2-2-------2-2-2-2-|--------------2--2--2--2-|-2--2-2-2-2-2--2--2-|
D  :9-9-------7-7-7-7-|-------------14-14-14-14-|14-14-6-6-6-6-11-11-|
A  :------------------|-------------------------|--------------------|
E  :------------------|-------------------------|--------------------|
 
E  :-9--9-5-5-5-5-5-5-|12-5-----------------|------------------|
B  :-2--2-2-2-2-2-2-2-|-----12-14-2---------|------------------|
G  :-2--2-2-2-2-2-2-2-|-------------14-2----|------------------|
D  :11-11-7-7-7-7-7-7-|------------------14-|2-12-2-9-11-7-----|
A  :------------------|---------------------|------------------|
E  :------------------|---------------------|------------------|
 
E  :7-7-7-7-9-7-2-5-5-|5-5-7-5-2--------12-12-|12-12-12-12-4-4-4-4-|
B  :2-2-2-2-------2-2-|2-2-------7-5-2---2--2-|-2--2--2--2-2-2-2-2-|
G  :2-2-2-2-------2-2-|2-2---------------2--2-|-2--2--2--2-2-2-2-2-|
D  :9-9-9-9-------7-7-|7-7--------------14-14-|14-14-14-14-6-6-6-6-|
A  :------------------|-----------------------|--------------------|
E  :------------------|-----------------------|--------------------|
 
E  :4-4-4-4-4-4-7-7-|7-7-9-7-2-5-5-5-5-|7-5-2--------12-12-12-12-|
B  :2-2-2-2-2-2-2-2-|2-2-------2-2-2-2-|------7-5-2---2--2--2--2-|
G  :2-2-2-2-2-2-2-2-|2-2-------2-2-2-2-|--------------2--2--2--2-|
D  :6-6-6-6-6-6-9-9-|9-9-------7-7-7-7-|-------------14-14-14-14-|
A  :----------------|------------------|-------------------------|
E  :----------------|------------------|-------------------------|
 
E  :12-12-4-4-4-4--9--9-|-9--9-5-5-5-5-5-5-|----------------|
B  :-2--2-2-2-2-2--2--2-|-2--2-2-2-2-2-2-2-|--------2-2---2-|
G  :-2--2-2-2-2-2--2--2-|-2--2-2-2-2-2-2-2-|--------2-2---2-|
D  :14-14-6-6-6-6-11-11-|11-11-7-7-7-7-7-7-|*-------5-5---5-|
A  :--------------------|------------------|--------5-5---5-|
E  :--------------------|------------------|--------3-3---3-|
 
E  :----------------|----------------|----------------|----------------|
B  :--2---2---------|----------------|----------------|----------------|
G  :--2---2-2-2---2-|--2---2-2-2---2-|--2---2-2-2---2-|--2---2-2-2---2-|
D  :--5---5-5-5---5-|--5---5-4-4---4-|--4---4-4-4---4-|--4---4-7-7---7-|
A  :--5---5-2-2---2-|--2---2-2-2---2-|--2---2-2-2---2-|--2---2-2-2---2-|
E  :--3---3-7-7---7-|--7---7-5-5---5-|--5---5-5-5---5-|--5---5-9-9---9-|
 
E  :----------------|----------------|----------------|----------------|
B  :----------------|--------2---2-2-|-2--2-----------|----------------|
G  :--2---2-2-2---2-|--2---2-2---2-2-|-2--2--2--------|----------------|
D  :--7---7-4-4---4-|--4---4-9---9-9-|-9--5--4---2----|-2-----2-----2--|
A  :--2---2-5-5---5-|--5---5-9---9-9-|-9--5--5---2----|-2-----2-----2--|
E  :--9---9-2-2---2-|--2---2-7---7-7-|-7--3--2---3----|-3-----3-----3--|
 
E  :-----2--2--2--2--2--2-|-2--2--2--2--2--2--2--2-|
B  :----14-14-14-14-14-14-|14-14-14-14-14-14-14-14-|
G  :----14-14-14-14-14-14-|14-14-14-14-14-14-14-14-|
D  :----12-12-12-12-12-12-|12-12-12-12-12-12-12-12-|
A  :-----2--2--2--2--2--2-|-2--2--2--2--2--2--2--2-|
E  :----------------------|------------------------|
 
E  :-2--2--2--2--2--2--2--2-|-2--2--2--2--2--2--2--2-|-2--2-------------|
B  :14-14-12-12-12-12-12-12-|12-12-12-12-12-12-12-12-|12-12-2-2---2---2-|
G  :14-14--2--2--2--2--2--2-|-2--2--2--2--2--2--2--2-|-2--2-2-2---2---2-|
D  :12-12-11-11-11-11-11-11-|11-11-11-11-11-11-11-11-|11-11-5-5---5---5-|
A  :-2--2--2--2--2--2--2--2-|-2--2--2--2--2--2--2--2-|-2--2-5-5---5---5-|
E  :------------------------|------------------------|------3-3---3---3-|
 
E  :----------------|----------------|----------------|----------------|
B  :--2-------------|----------------|----------------|----------------|
G  :--2-2-2---2---2-|--2-2-2---2---2-|--2-2-2---2---2-|--2-2-2---2---2-|
D  :--5-5-5---5---5-|--5-4-4---4---4-|--4-4-4---4---4-|--4-7-7---7---7-|
A  :--5-2-2---2---2-|--2-2-2---2---2-|--2-2-2---2---2-|--2-2-2---2---2-|
E  :--3-7-7---7---7-|--7-5-5---5---5-|--5-5-5---5---5-|--5-9-9---9---9-|
 
E  :----------------|----------------|----------------|----------------|
B  :----------------|----2---2-2--2--|2---------------|----------------|
G  :--2-2-2---2---2-|--2-2---2-2--2--|2--2------------|----------------|
D  :--7-4-4---4---4-|--4-9---9-9--9--|5--4---2-----2--|---2-----2------|
A  :--2-5-5---5---5-|--5-9---9-9--9--|5--5---2-----2--|---2-----2------|
E  :--9-2-2---2---2-|--2-7---7-7--7--|3--2---3-----3--|---3-----3------|
 
E  :-2--2--2--2--2--2--2--2-|-2--2--2--2--2--2--2--2-|
B  :14-14-14-14-14-14-14-14-|14-14-14-14-14-14-14-14-|
G  :14-14-14-14-14-14-14-14-|14-14-14-14-14-14-14-14-|
D  :12-12-12-12-12-12-12-12-|12-12-12-12-12-12-12-12-|
A  :-2--2--2--2--2--2--2--2-|-2--2--2--2--2--2--2--2-|
E  :------------------------|------------------------|
 
E  :-2--2--2--2--2--2--2--2-|-2--2--2--2--2--2--2--2-|--------*-------|
B  :12-12-12-12-12-12-12-12-|12-12-12-12-12-12-12-12-|----------------|
G  :-2--2--2--2--2--2--2--2-|-2--2--2--2--2--2--2--2-|----------------|
D  :11-11-11-11-11-11-11-11-|11-11-11-11-11-11-11-11-|----------------|
A  :-2--2--2--2--2--2--2--2-|-2--2--2--2--2--2--2--2-|----------------|
E  :------------------------|------------------------|----------------|
 
E  :----------------|----------------|----------------|----------------|
B  :--------*-------|----------------|----------------|----------------|
G  :----------------|--------*-------|----------------|----------------|
D  :----------------|----------------|--------*-------|----------------|
A  :----------------|----------------|----------------|--------*-------|
E  :----------------|----------------|----------------|----------------|
 
E  :----------------|----------------|----------------|----------------|
B  :----------------|----------------|----------------|----------------|
G  :----------------|----------------|----------------|----------------|
D  :----------------|----------------|----------------|----------------|
A  :----------------|----------------|----------------|----------------|
E  :----------------|----------------|----------------|----------------|
Добавлено: 09.06.2013
Другие материалы по этой песне:
  • Аккорды и текст

Страница создана 09.06.2013
http://primanota.ru/misc-unsigned-bands/city-of-ifa-beach-demon-chords.htm
Привет, Гость.
Предлагаем пройти революционный курс по гитаре.
Подарок от PrimaNota.Ru, забирай!