PrimaNota.ru - самый крупный в мире бесплатный архив песенных текстов, аккордов, табулатур и нот


Misc Unsigned Bands - City Of Ifa - Bears - таба

Регистрация Запомнить меня
Войти через:  Facebook Google Twitter Vk Yandex Mail.ru

Misc Unsigned Bands - City Of Ifa - Bears - таба

Печатать
Просмотров: 46
Уроки эстрадного вокала в Санкт-Петербурге
-------------------------------------------------------------------------------
                             BEARS - City of Ifa
-------------------------------------------------------------------------------
Tabbed by: Dallboi
Email: dallboi@hotmail.com

Tuning: EADGBe (Standard)
Capo On Fret 2


E  :----------------|5-5-5-5-5-5-5-5-|12-12-12-12-12-12-12-12-|
B  :----------------|2-2-2-2-2-2-2-2-|-2--2--2--2--2--2--2--2-|
G  :----------------|7-7-7-7-7-7-7-7-|14-14-14-14-14-14-14-14-|
D  :----------------|----------------|------------------------|
A  :----------------|----------------|------------------------|
E  :----------------|----------------|------------------------|

E  :9-9-9-9-9-9-9-9-|7-7-7-7-7-7-7-7-|5-5-5-5-5-5-5-5-|
B  :2-2-2-2-2-2-2-2-|2-2-2-2-2-2-2-2-|2-2-2-2-2-2-2-2-|
G  :7-7-7-7-7-7-7-7-|9-9-9-9-9-9-9-9-|7-7-7-7-7-7-7-7-|
D  :----------------|----------------|----------------|
A  :----------------|----------------|----------------|
E  :----------------|----------------|----------------|

E  :12-12-12-12-12-12-12-12-|9-9-9-9-9-9-9-9-|7-7-7-7-7-7-7-7-|
B  :-2--2--2--2--2--2--2--2-|2-2-2-2-2-2-2-2-|2-2-2-2-2-2-2-2-|
G  :14-14-14-14-14-14-14-14-|7-7-7-7-7-7-7-7-|9-9-9-9-9-9-9-9-|
D  :------------------------|----------------|----------------|
A  :------------------------|----------------|----------------|
E  :------------------------|----------------|----------------|

E  :5-5-5-5-5-5-5-5-|12-12-12-12-12-12-12-12-|9-9-9-9-9-9-9-9-|
B  :2-2-2-2-2-2-2-2-|-2--2--2--2--2--2--2--2-|2-2-2-2-2-2-2-2-|
G  :7-7-7-7-7-7-7-7-|14-14-14-14-14-14-14-14-|7-7-7-7-7-7-7-7-|
D  :----------------|------------------------|----------------|
A  :----------------|------------------------|----------------|
E  :----------------|------------------------|----------------|

E  :7-7-7-7-7-7-7-7-|5-5-5-5-5-5-5-5-|12-12-12-12-12-12-12-12-|
B  :2-2-2-2-2-2-2-2-|2-2-2-2-2-2-2-2-|-2--2--2--2--2--2--2--2-|
G  :9-9-9-9-9-9-9-9-|7-7-7-7-7-7-7-7-|14-14-14-14-14-14-14-14-|
D  :----------------|----------------|------------------------|
A  :----------------|----------------|------------------------|
E  :----------------|----------------|------------------------|

E  :9-9-9-9-9-9-9-9-|7-7-7-7-7-7-7-7-|(2)-(2)-(2)-(2)-(2)-(2)-(2)-(2)-|
B  :2-2-2-2-2-2-2-2-|2-2-2-2-2-2-2-2-|(2)-(2)-(2)-(2)-(2)-(2)-(2)-(2)-|
G  :7-7-7-7-7-7-7-7-|9-9-9-9-9-9-9-9-|-6---6---6---6---7---7---7---7--|
D  :----------------|----------------|(2)-(2)-(2)-(2)-(2)-(2)-(2)-(2)-|
A  :----------------|----------------|(2)-(2)-(2)-(2)-(2)-(2)-(2)-(2)-|
E  :----------------|----------------|--------------------------------|

E  :(2)-(2)-(2)-(2)-(2)-(2)-(2)-(2)-|(2)-(2)-(2)-(2)-(2)-(2)-(2)-(2)-|
B  :(2)-(2)-(2)-(2)-(2)-(2)-(2)-(2)-|(2)-(2)-(2)-(2)-(2)-(2)-(2)-(2)-|
G  :-7---7---7---7---7---7---7---7--|-6---6---6---6---7---7---7---7--|
D  :(2)-(2)-(2)-(2)-(2)-(2)-(2)-(2)-|(2)-(2)-(2)-(2)-(2)-(2)-(2)-(2)-|
A  :(2)-(2)-(2)-(2)-(2)-(2)-(2)-(2)-|(2)-(2)-(2)-(2)-(2)-(2)-(2)-(2)-|
E  :--------------------------------|--------------------------------|

E  :(2)-(2)-(2)-(2)-(2)-(2)-(2)-(2)-|(2)-(2)-(2)-(2)-(2)-(2)-(2)-(2)-|
B  :(2)-(2)-(2)-(2)-(2)-(2)-(2)-(2)-|(2)-(2)-(2)-(2)-(2)-(2)-(2)-(2)-|
G  :-7---7---7---7---7---7---7---7--|-9---9---9---9---7---7---7---7--|
D  :(2)-(2)-(2)-(2)-(2)-(2)-(2)-(2)-|(2)-(2)-(2)-(2)-(2)-(2)-(2)-(2)-|
A  :(2)-(2)-(2)-(2)-(2)-(2)-(2)-(2)-|(2)-(2)-(2)-(2)-(2)-(2)-(2)-(2)-|
E  :--------------------------------|--------------------------------|

E  :(2)-(2)-(2)-(2)-(2)-(2)-(2)-(2)-|(2)-(2)-(2)-(2)-(2)-(2)-(2)-(2)-|
B  :(2)-(2)-(2)-(2)-(2)-(2)-(2)-(2)-|(2)-(2)-(2)-(2)-(2)-(2)-(2)-(2)-|
G  :-7---7---7---7---7---7---7---7--|-6---6---6---6---4---4---4---4--|
D  :(2)-(2)-(2)-(2)-(2)-(2)-(2)-(2)-|(2)-(2)-(2)-(2)-(2)-(2)-(2)-(2)-|
A  :(2)-(2)-(2)-(2)-(2)-(2)-(2)-(2)-|(2)-(2)-(2)-(2)-(2)-(2)-(2)-(2)-|
E  :--------------------------------|--------------------------------|

E  :(2)-(2)-(2)-(2)-(2)-(2)-(2)-(2)-|(2)-(2)-(2)-(2)-(2)-(2)-(2)-(2)-|
B  :(2)-(2)-(2)-(2)-(2)-(2)-(2)-(2)-|(2)-(2)-(2)-(2)-(2)-(2)-(2)-(2)-|
G  :-4---4---4---4---4---4---4---4--|-6---6---6---6---7---7---7---7--|
D  :(2)-(2)-(2)-(2)-(2)-(2)-(2)-(2)-|(2)-(2)-(2)-(2)-(2)-(2)-(2)-(2)-|
A  :(2)-(2)-(2)-(2)-(2)-(2)-(2)-(2)-|(2)-(2)-(2)-(2)-(2)-(2)-(2)-(2)-|
E  :--------------------------------|--------------------------------|

E  :(2)-(2)-(2)-(2)-(2)-(2)-(2)-(2)-|(2)-(2)-(2)-(2)-(2)-(2)-(2)-(2)-|
B  :(2)-(2)-(2)-(2)-(2)-(2)-(2)-(2)-|(2)-(2)-(2)-(2)-(2)-(2)-(2)-(2)-|
G  :-7---7---7---7---7---7---7---7--|-6---6---6---6---7---7---7---7--|
D  :(2)-(2)-(2)-(2)-(2)-(2)-(2)-(2)-|(2)-(2)-(2)-(2)-(2)-(2)-(2)-(2)-|
A  :(2)-(2)-(2)-(2)-(2)-(2)-(2)-(2)-|(2)-(2)-(2)-(2)-(2)-(2)-(2)-(2)-|
E  :--------------------------------|--------------------------------|

E  :(2)-(2)-(2)-(2)-(2)-(2)-(2)-(2)-|(2)-(2)-(2)-(2)-(2)-(2)-(2)-(2)-|
B  :(2)-(2)-(2)-(2)-(2)-(2)-(2)-(2)-|(2)-(2)-(2)-(2)-(2)-(2)-(2)-(2)-|
G  :-7---7---7---7---7---7---7---7--|-9---9---9---9---7---7---7---7--|
D  :(2)-(2)-(2)-(2)-(2)-(2)-(2)-(2)-|(2)-(2)-(2)-(2)-(2)-(2)-(2)-(2)-|
A  :(2)-(2)-(2)-(2)-(2)-(2)-(2)-(2)-|(2)-(2)-(2)-(2)-(2)-(2)-(2)-(2)-|
E  :--------------------------------|--------------------------------|

E  :(2)-(2)-(2)-(2)-(2)-(2)-(2)-(2)-|(2)-(2)-(2)-(2)-(2)-(2)-(2)-(2)-|
B  :(2)-(2)-(2)-(2)-(2)-(2)-(2)-(2)-|(2)-(2)-(2)-(2)-(2)-(2)-(2)-(2)-|
G  :-7---7---7---7---7---7---7---7--|-6---6---6---6---4---4---4---4--|
D  :(2)-(2)-(2)-(2)-(2)-(2)-(2)-(2)-|(2)-(2)-(2)-(2)-(2)-(2)-(2)-(2)-|
A  :(2)-(2)-(2)-(2)-(2)-(2)-(2)-(2)-|(2)-(2)-(2)-(2)-(2)-(2)-(2)-(2)-|
E  :--------------------------------|--------------------------------|

E  :(2)-(2)-(2)-(2)-(2)-(2)-(2)-(2)-|(2)-(2)-(2)-(2)-(2)-(2)-(2)-(2)-|
B  :(2)-(2)-(2)-(2)-(2)-(2)-(2)-(2)-|-5---5---5---5---5---5---5---5--|
G  :-4---4---4---4---4---4---4---4--|(2)-(2)-(2)-(2)-(2)-(2)-(2)-(2)-|
D  :(2)-(2)-(2)-(2)-(2)-(2)-(2)-(2)-|(2)-(2)-(2)-(2)-(2)-(2)-(2)-(2)-|
A  :(2)-(2)-(2)-(2)-(2)-(2)-(2)-(2)-|(2)-(2)-(2)-(2)-(2)-(2)-(2)-(2)-|
E  :--------------------------------|--------------------------------|

E  :(2)-(2)-(2)-(2)-(2)-(2)-(2)-(2)-|2--------7---9---2--(2)-|
B  :-5---5---5---5---5---5---5---5--|2-------(2)-(2)-(2)--9--|
G  :(2)-(2)-(2)-(2)-(2)-(2)-(2)-(2)-|2-------(2)-(2)-(2)-(2)-|
D  :(2)-(2)-(2)-(2)-(2)-(2)-(2)-(2)-|2-----------------------|
A  :(2)-(2)-(2)-(2)-(2)-(2)-(2)-(2)-|------------------------|
E  :--------------------------------|------------------------|

E  :(2)-(2)-(2)---(2)---(2)---|2--------7---9---2--(2)-|
B  :-7---2---5-----5-----5----|2-------(2)-(2)-(2)--9--|
G  :(2)-(2)-(2)----6-----6----|2-------(2)-(2)-(2)-(2)-|
D  :--------(2)---(2)----7----|2-----------------------|
A  :--------------------------|------------------------|
E  :--------------------------|------------------------|

E  :(2)-(2)-(9)(2)(7)(2)------------(7)(2)(5)(2)------------(5)(2)(3)(2)----|
B  :-7---2--------------(9)(2)(7)(2)------------(7)(2)(5)(2)----------------|(5)
G  :(2)-(2)-----------------------------------------------------------------|
D  :------------------------------------------------------------------------|
A  :------------------------------------------------------------------------|
E  :------------------------------------------------------------------------|

E  :---------|2--------7---9---2--(2)-|(2)-(2)-(2)---(2)---(2)---|
B  :(2)(3)(2)|2-------(2)-(2)-(2)--9--|-7---2---5-----5-----5----|
G  :---------|2-------(2)-(2)-(2)-(2)-|(2)-(2)-(2)----6-----6----|
D  :---------|2-----------------------|--------(2)---(2)----7----|
A  :---------|------------------------|--------------------------|
E  :---------|------------------------|--------------------------|

E  :2--------7---9---2--(2)-|
B  :2-------(2)-(2)-(2)--9--|
G  :2-------(2)-(2)-(2)-(2)-|
D  :2-----------------------|
A  :------------------------|
E  :------------------------|

E  :(2)-(2)-(9)(2)(7)(2)------------(7)(2)(5)(2)------------(5)(2)(3)(2)----|
B  :-7---2--------------(9)(2)(7)(2)------------(7)(2)(5)(2)----------------|(5)
G  :(2)-(2)-----------------------------------------------------------------|
D  :------------------------------------------------------------------------|
A  :------------------------------------------------------------------------|
E  :------------------------------------------------------------------------|

E  :---------|2-------7---9---|7-------(2)---(2)---|(2)---2-------7---|
B  :(2)(3)(2)|2---------------|---------5-----7----|(2)---2-----------|
G  :---------|7-------7---9---|7-------(2)---(2)---|-6----7-------7---|
D  :---------|2---------------|--------------------|------2-----------|
A  :---------|----------------|--------------------|------------------|
E  :---------|----------------|--------------------|------------------|

E  :9---7-------(9)(2)(7)(2)------------|
B  :------------------------(9)(2)(7)(2)|
G  :9---7-------------------------------|
D  :------------------------------------|
A  :------------------------------------|
E  :------------------------------------|

E  :(7)(2)(5)(2)------------(5)(2)(3)(2)--------------------|
B  :------------(7)(2)(5)(2)------------(5)(2)(3)(2)--------|
G  :--------------------------------------------------------|
D  :--------------------------------------------------------|
A  :--------------------------------------------------------|
E  :--------------------------------------------------------|

E  :2-------7---9---|7-------(2)---(2)---|(2)---2-------7---|
B  :2---------------|---------5-----7----|(2)---2-----------|
G  :7-------7---9---|7-------(2)---(2)---|-6----7-------7---|
D  :2---------------|--------------------|------2-----------|
A  :----------------|--------------------|------------------|
E  :----------------|--------------------|------------------|

E  :9---7-------(9)(2)(7)(2)------------|
B  :------------------------(9)(2)(7)(2)|
G  :9---7-------------------------------|
D  :------------------------------------|
A  :------------------------------------|
E  :------------------------------------|

E  :(7)(2)(5)(2)------------(5)(2)(3)(2)--------------------|
B  :------------(7)(2)(5)(2)------------(5)(2)(3)(2)--------|
G  :--------------------------------------------------------|
D  :--------------------------------------------------------|
A  :--------------------------------------------------------|
E  :--------------------------------------------------------|

E  :*------------------------|-------------------------|
B  :*-9-2-9-2---7-2-7-2---5-2|--9-2-9-2---7-2-7-2---5-2|
G  :*------------------------|-------------------------|
D  :7---------6---------4----|7---------6---------4----|
A  :*------------------------|-------------------------|
E  :*------------------------|-------------------------|

E  :--12-2-12-2---11-2-11-2---9-2|--12-2-12-2---11-2-11-2---9-2|
B  :*----------------------------|-----------------------------|
G  :9-----------8-----------6----|9-----------8-----------6----|
D  :*----------------------------|-----------------------------|
A  :-----------------------------|-----------------------------|
E  :-----------------------------|-----------------------------|

E  :*------------------------|-------------------------|
B  :--9-2-------7-2-------5-2|--9-2-------7-2-------5-2|
G  :*-----9-2-------6-2------|------9-2-------6-2------|
D  :7---------6---------4----|7---------6---------4----|
A  :-------------------------|-------------------------|
E  :-------------------------|-------------------------|

E  :-------------------------|---------------------------|----------------|
B  :*------------------------|---------------------------|----------------|
G  :*-9-2-------7-2-------4-2|--9-2-----------7-2--------|----4-2-4-6-2---|
D  :*-----9-2-------7-2------|------9-2-----------7-2----|--------------6-|
A  :7---------5---------4----|7---------9-2-5---------7-2|4---------------|
E  :-------------------------|---------------------------|----------------|

E  :----------------|----------------|----------------|----------------|
B  :----------------|9-9-9-9-9-9-9-9-|7-7-7-7-7-7-7-7-|----------------|
G  :----------------|2-2-2-2-2-2-2-2-|2-2-2-2-2-2-2-2-|4-4-4-4-4-4-4-4-|
D  :----------------|7-7-7-7-7-7-7-7-|6-6-6-6-6-6-6-6-|2-2-2-2-2-2-2-2-|
A  :----------------|----------------|----------------|4-4-4-4-4-4-4-4-|
E  :----------------|----------------|----------------|----------------|

E  :----------------|----------------|----------------|
B  :5-5-5-5-5-5-5-5-|9-9-9-9-9-9-9-9-|7-7-7-7-7-7-7-7-|
G  :2-2-2-2-2-2-2-2-|2-2-2-2-2-2-2-2-|2-2-2-2-2-2-2-2-|
D  :4-4-4-4-4-4-4-4-|7-7-7-7-7-7-7-7-|6-6-6-6-6-6-6-6-|
A  :----------------|----------------|----------------|
E  :----------------|----------------|----------------|

E  :------------------------|----------------|----------------|
B  :14-14-14-14-14-14-14-14-|5-5-5-5-5-5-5-5-|9-9-9-9-9-9-9-9-|
G  :-2--2--2--2--2--2--2--2-|2-2-2-2-2-2-2-2-|2-2-2-2-2-2-2-2-|
D  :12-12-12-12-12-12-12-12-|4-4-4-4-4-4-4-4-|7-7-7-7-7-7-7-7-|
A  :------------------------|----------------|----------------|
E  :------------------------|----------------|----------------|

E  :----------------|----------------|----------------|----------------|
B  :7-7-7-7-7-7-7-7-|----------------|5-5-5-5-5-5-5-5-|9-9-9-9-9-9-9-9-|
G  :2-2-2-2-2-2-2-2-|4-4-4-4-4-4-4-4-|2-2-2-2-2-2-2-2-|2-2-2-2-2-2-2-2-|
D  :6-6-6-6-6-6-6-6-|2-2-2-2-2-2-2-2-|4-4-4-4-4-4-4-4-|7-7-7-7-7-7-7-7-|
A  :----------------|4-4-4-4-4-4-4-4-|----------------|----------------|
E  :----------------|----------------|----------------|----------------|

E  :----------------|------------------------|----------------|
B  :7-7-7-7-7-7-7-7-|14-14-14-14-14-14-14-14-|5-5-5-5-5-5-5-5-|
G  :2-2-2-2-2-2-2-2-|-2--2--2--2--2--2--2--2-|2-2-2-2-2-2-2-2-|
D  :6-6-6-6-6-6-6-6-|12-12-12-12-12-12-12-12-|4-4-4-4-4-4-4-4-|
A  :----------------|------------------------|----------------|
E  :----------------|------------------------|----------------|

E  :9-9-9-9-9-9-9-9-|14-14-14-14-14-14-14-14-|7-7-7-7-7-7-7-7-|
B  :9-9-9-9-9-9-9-9-|14-14-14-14-14-14-14-14-|7-7-7-7-7-7-7-7-|
G  :2-2-2-2-2-2-2-2-|-2--2--2--2--2--2--2--2-|2-2-2-2-2-2-2-2-|
D  :----------------|------------------------|----------------|
A  :7-7-7-7-7-7-7-7-|12-12-12-12-12-12-12-12-|5-5-5-5-5-5-5-5-|
E  :----------------|------------------------|----------------|

E  :7-7-7-7-7-7-7-7-|9-9-9-9-9-9-9-9-|7-7-7-7-7-7-7-7-|
B  :7-7-7-7-7-7-7-7-|9-9-9-9-9-9-9-9-|7-7-7-7-7-7-7-7-|
G  :2-2-2-2-2-2-2-2-|2-2-2-2-2-2-2-2-|2-2-2-2-2-2-2-2-|
D  :----------------|----------------|----------------|
A  :5-5-5-5-5-5-5-5-|7-7-7-7-7-7-7-7-|5-5-5-5-5-5-5-5-|
E  :----------------|----------------|----------------|

E  :12-12-12-12-12-12-12-12-|12-12-12-12-12-12-12-12-|9-9-9-9-9-9-9-9-|
B  :12-12-12-12-12-12-12-12-|12-12-12-12-12-12-12-12-|9-9-9-9-9-9-9-9-|
G  :-2--2--2--2--2--2--2--2-|-2--2--2--2--2--2--2--2-|2-2-2-2-2-2-2-2-|
D  :------------------------|------------------------|----------------|
A  :10-10-10-10-10-10-10-10-|10-10-10-10-10-10-10-10-|7-7-7-7-7-7-7-7-|
E  :------------------------|------------------------|----------------|

E  :12-12-12-12-12-12-12-12-|17-17-17-17-17-17-17-17-|
B  :12-12-12-12-12-12-12-12-|17-17-17-17-17-17-17-17-|
G  :-2--2--2--2--2--2--2--2-|-2--2--2--2--2--2--2--2-|
D  :------------------------|------------------------|
A  :10-10-10-10-10-10-10-10-|15-15-15-15-15-15-15-15-|
E  :------------------------|------------------------|

E  :17-17-17-17-17-17-17-17-|9-9-9-9-9-9-9-9-|14-14-14-14-14-14-14-14-|
B  :17-17-17-17-17-17-17-17-|9-9-9-9-9-9-9-9-|14-14-14-14-14-14-14-14-|
G  :-2--2--2--2--2--2--2--2-|2-2-2-2-2-2-2-2-|-2--2--2--2--2--2--2--2-|
D  :------------------------|----------------|------------------------|
A  :15-15-15-15-15-15-15-15-|7-7-7-7-7-7-7-7-|12-12-12-12-12-12-12-12-|
E  :------------------------|----------------|------------------------|

E  :7-7-7-7-7-7-7-7-|7-7-7-7-7-7-7-7-|------------------|------------------|
B  :7-7-7-7-7-7-7-7-|7-7-7-7-7-7-7-7-|------------------|------------------|
G  :2-2-2-2-2-2-2-2-|2-2-2-2-2-2-2-2-|-----6--------6---|-----6--------6---|
D  :----------------|----------------|---2---2----2---2-|---2---2----2---2-|
A  :5-5-5-5-5-5-5-5-|5-5-5-5-5-5-5-5-|4--------4--------|4--------4--------|
E  :----------------|----------------|------------------|------------------|

E  :------------------|------------------|------------------|
B  :------------------|------------------|------------------|
G  :-----9--------9---|-----8--------8---|-----6--------6---|
D  :---2---2----2---2-|---2---2----2---2-|---2---2----2---2-|
A  :7--------7--------|6--------6--------|4--------4--------|
E  :------------------|------------------|------------------|

E  :------------------|----------------------|------------------|
B  :------------------|----------------------|------------------|
G  :-----6--------6---|------13---------13---|-----8--------8---|
D  :---2---2----2---2-|----2----2-----2----2-|---2---2----2---2-|
A  :4--------4--------|11---------11---------|6--------6--------|
E  :------------------|----------------------|------------------|

E  :------------------|------------------|------------------|
B  :------------------|------------------|------------------|
G  :-----6--------6---|-----6--------6---|-----9--------9---|
D  :---2---2----2---2-|---2---2----2---2-|---2---2----2---2-|
A  :4--------4--------|4--------4--------|7--------7--------|
E  :------------------|------------------|------------------|

E  :------------------|------------------|------------------|
B  :------------------|------------------|------------------|
G  :-----8--------8---|-----6--------6---|-----6--------6---|
D  :---2---2----2---2-|---2---2----2---2-|---2---2----2---2-|
A  :6--------6--------|4--------4--------|4--------4--------|
E  :------------------|------------------|------------------|

E  :----------------------|------------------|
B  :----------------------|------------------|
G  :------13---------13---|-----8--------8---|
D  :----2----2-----2----2-|---2---2----2---2-|
A  :11---------11---------|6--------6--------|
E  :----------------------|------------------|

E  :-------------------------------|-------------------------------|
B  :-------------------------------|-------------------------------|
G  :--------6-2-------------6-2----|--------6-2-------------6-2----|
D  :----6-2-----6-2-----6-2-----6-2|----6-2-----6-2-----6-2-----6-2|
A  :4-2-------------4-2------------|4-2-------------4-2------------|
E  :-------------------------------|-------------------------------|

E  :-------------------------------|-------------------------------|
B  :-------------------------------|-------------------------------|
G  :--------9-2-------------9-2----|--------8-2-------------8-2----|
D  :----9-2-----9-2-----9-2-----9-2|----7-2-----7-2-----7-2-----6-2|
A  :7-2-------------7-2------------|6-2-------------6-2------------|
E  :-------------------------------|-------------------------------|

E  :-------------------------------|-------------------------------|
B  :-------------------------------|-------------------------------|
G  :--------6-2-------------6-2----|--------6-2-------------6-2----|
D  :----6-2-----6-2-----6-2-----6-2|----6-2-----6-2-----6-2-----6-2|
A  :4-2-------------4-2------------|4-2-------------4-2------------|
E  :-------------------------------|-------------------------------|

E  :-------------------------------|-------------------------------|
B  :-------------------------------|-------------------------------|
G  :--------9-2-------------9-2----|--------8-2-------------8-2----|
D  :----9-2-----9-2-----9-2-----9-2|----7-2-----7-2-----7-2-----6-2|
A  :7-2-------------7-2------------|6-2-------------6-2------------|
E  :-------------------------------|-------------------------------|

E  :------------------|------------------|------------------|
B  :------------------|------------------|------------------|
G  :-----6--------6---|-----6--------6---|-----9--------9---|
D  :---2---2----2---2-|---2---2----2---2-|---2---2----2---2-|
A  :4--------4--------|4--------4--------|7--------7--------|
E  :------------------|------------------|------------------|

E  :------------------|------------------|------------------|
B  :------------------|------------------|------------------|
G  :-----8--------8---|-----6--------6---|-----6--------6---|
D  :---2---2----2---2-|---2---2----2---2-|---2---2----2---2-|
A  :6--------6--------|4--------4--------|4--------4--------|
E  :------------------|------------------|------------------|

E  :----------------------|------------------|------------------|
B  :----------------------|------------------|------------------|
G  :------13---------13---|-----8--------8---|-----6--------6---|
D  :----2----2-----2----2-|---2---2----2---2-|---2---2----2---2-|
A  :11---------11---------|6--------6--------|4--------4--------|
E  :----------------------|------------------|------------------|

E  :------------------|------------------|------------------|
B  :------------------|------------------|------------------|
G  :-----6--------6---|-----9--------9---|-----8--------8---|
D  :---2---2----2---2-|---2---2----2---2-|---2---2----2---2-|
A  :4--------4--------|7--------7--------|6--------6--------|
E  :------------------|------------------|------------------|

E  :------------------|------------------|----------------------|
B  :------------------|------------------|----------------------|
G  :-----6--------6---|-----6--------6---|------13---------13---|
D  :---2---2----2---2-|---2---2----2---2-|----2----2-----2----2-|
A  :4--------4--------|4--------4--------|11---------11---------|
E  :------------------|------------------|----------------------|

E  :------------------|-------------------------------|
B  :------------------|-------------------------------|
G  :-----8--------8---|--------6-2-------------6-2----|
D  :---2---2----2---2-|----6-2-----6-2-----6-2-----6-2|
A  :6--------6--------|4-2-------------4-2------------|
E  :------------------|-------------------------------|

E  :-------------------------------|-------------------------------|
B  :-------------------------------|-------------------------------|
G  :--------6-2-------------6-2----|--------9-2-------------9-2----|
D  :----6-2-----6-2-----6-2-----6-2|----9-2-----9-2-----9-2-----9-2|
A  :4-2-------------4-2------------|7-2-------------7-2------------|
E  :-------------------------------|-------------------------------|

E  :-------------------------------|-------------------------------|
B  :-------------------------------|-------------------------------|
G  :--------8-2-------------8-2----|--------6-2-------------6-2----|
D  :----7-2-----7-2-----7-2-----6-2|----6-2-----6-2-----6-2-----6-2|
A  :6-2-------------6-2------------|4-2-------------4-2------------|
E  :-------------------------------|-------------------------------|

E  :-------------------------------|-------------------------------|
B  :-------------------------------|-------------------------------|
G  :--------6-2-------------6-2----|--------9-2-------------9-2----|
D  :----6-2-----6-2-----6-2-----6-2|----9-2-----9-2-----9-2-----9-2|
A  :4-2-------------4-2------------|7-2-------------7-2------------|
E  :-------------------------------|-------------------------------|

E  :-------------------------------|2-2-2-2-2-2-2-2-|2-2-2-2--2--2--2--2-|
B  :-------------------------------|2-2-2-2-2-2-2-2-|2-2-2-2--2--2--2--2-|
G  :--------8-2-------------8-2----|6-6-6-6-9-9-9-9-|8-8-8-8-14-14-14-14-|
D  :----7-2-----7-2-----7-2-----6-2|2-2-2-2-2-2-2-2-|2-2-2-2--2--2--2--2-|
A  :6-2-------------6-2------------|4-4-4-4-7-7-7-7-|6-6-6-6-12-12-12-12-|
E  :-------------------------------|----------------|--------------------|

E  :-2--2--2--2-2-2-2-2-|2-2-2-2-2-2-2-2-|2-2-2-2-2-2-2-2-|
B  :-2--2--2--2-2-2-2-2-|2-2-2-2-2-2-2-2-|2-2-2-2-2-2-2-2-|
G  :13-13-13-13-9-9-9-9-|8-8-8-8-6-6-6-6-|9-9-9-9-8-8-8-8-|
D  :-2--2--2--2-2-2-2-2-|2-2-2-2-2-2-2-2-|2-2-2-2-2-2-2-2-|
A  :11-11-11-11-7-7-7-7-|6-6-6-6-4-4-4-4-|7-7-7-7-6-6-6-6-|
E  :--------------------|----------------|----------------|

E  :-2--2--2--2--2--2--2--2-|2-2-2-2-2-2-2-2-|2-----2-2-2-2-2-2-|
B  :-2--2--2--2--2--2--2--2-|2-2-2-2-2-2-2-2-|2-----2-2-2-2-2-2-|
G  :14-14-14-14-13-13-13-13-|9-9-9-9-8-8-8-8-|6-----9-9-9-9-9-9-|
D  :-2--2--2--2--2--2--2--2-|2-2-2-2-2-2-2-2-|2-----2-2-2-2-2-2-|
A  :12-12-12-12-11-11-11-11-|7-7-7-7-6-6-6-6-|4-----7-7-7-7-7-7-|
E  :------------------------|----------------|------------------|

E  :2------2--2--2--2--2--2-|-2-----2-2-2-2-2-2-|2-------2-2-2-2-|
B  :2------2--2--2--2--2--2-|-2-----2-2-2-2-2-2-|2-------2-2-2-2-|
G  :8-----14-14-14-14-14-11-|13-----9-9-9-9-9-9-|8-------6-6-6-6-|
D  :2------2--2--2--2--2--2-|-2-----2-2-2-2-2-2-|2-------2-2-2-2-|
A  :6-----12-12-12-12-12--9-|11-----7-7-7-7-7-7-|6-------4-4-4-4-|
E  :------------------------|-------------------|----------------|

E  :2-2-2-2-2-2-2-2-|9-9-9-9-9-9-9-9-|14-14-14-14-14-14-14-14-|
B  :2-2-2-2-2-2-2-2-|9-9-9-9-9-9-9-9-|14-14-14-14-14-14-14-14-|
G  :6-6-6-6-6-6-6-6-|2-2-2-2-2-2-2-2-|-2--2--2--2--2--2--2--2-|
D  :2-2-2-2-2-2-2-2-|----------------|------------------------|
A  :4-4-4-4-4-4-4-4-|7-7-7-7-7-7-7-7-|12-12-12-12-12-12-12-12-|
E  :----------------|----------------|------------------------|

E  :7-7-7-7-7-7-7-7-|7-7-7-7-7-7-7-7-|9-9-9-9-9-9-9-9-|
B  :7-7-7-7-7-7-7-7-|7-7-7-7-7-7-7-7-|9-9-9-9-9-9-9-9-|
G  :2-2-2-2-2-2-2-2-|2-2-2-2-2-2-2-2-|2-2-2-2-2-2-2-2-|
D  :----------------|----------------|----------------|
A  :5-5-5-5-5-5-5-5-|5-5-5-5-5-5-5-5-|7-7-7-7-7-7-7-7-|
E  :----------------|----------------|----------------|

E  :14-14-14-14-14-14-14-14-|7-7-7-7-7-7-7-7-|7-7-7-7-7-7-7-7-|
B  :14-14-14-14-14-14-14-14-|7-7-7-7-7-7-7-7-|7-7-7-7-7-7-7-7-|
G  :-2--2--2--2--2--2--2--2-|2-2-2-2-2-2-2-2-|2-2-2-2-2-2-2-2-|
D  :------------------------|----------------|----------------|
A  :12-12-12-12-12-12-12-12-|5-5-5-5-5-5-5-5-|5-5-5-5-5-5-5-5-|
E  :------------------------|----------------|----------------|

E  :9-9-9-9-9-9-9-9-|17-17-17-17-17-17-17-17-|19-19-19-19-19-19-19-19-|
B  :9-9-9-9-9-9-9-9-|17-17-17-17-17-17-17-17-|19-19-19-19-19-19-19-19-|
G  :2-2-2-2-2-2-2-2-|-2--2--2--2--2--2--2--2-|-2--2--2--2--2--2--2--2-|
D  :----------------|------------------------|------------------------|
A  :7-7-7-7-7-7-7-7-|15-15-15-15-15-15-15-15-|17-17-17-17-17-17-17-17-|
E  :----------------|------------------------|------------------------|

E  :----------------|----------------|--------------------|
B  :----------------|----------------|--------------------|
G  :----------------|----------------|--------------------|
D  :----------------|--6---6---9---9-|--7---7----14----14-|
A  :----------------|4---4---7---7---|6---6---12----12----|
E  :----------------|----------------|--------------------|

E  :--------------------|
B  :--------------------|
G  :--------------------|
D  :---13----13-*-------|
A  :11----11------------|
E  :--------------------|
Добавлено: 29.06.2013
Другие материалы по этой песне:
  • Аккорды и текст

Страница создана 29.06.2013
http://primanota.ru/misc-unsigned-bands/city-of-ifa-bears-chords.htm
Привет, Гость.
Предлагаем пройти революционный курс по гитаре.
Подарок от PrimaNota.Ru, забирай!