PrimaNota.ru - самый крупный в мире бесплатный архив песенных текстов, аккордов, табулатур и нот


Misc Unsigned Bands - City Of Ifa - Dry Seasons Part 2 - таба

Регистрация Запомнить меня
Войти через:  Facebook Google Twitter Vk Yandex Mail.ru

Misc Unsigned Bands - City Of Ifa - Dry Seasons Part 2 - таба

Печатать
Просмотров: 53
Уроки эстрадного вокала в Санкт-Петербурге
-------------------------------------------------------------------------------
                             DRY SEASONS PT.2 - City of Ifa
-------------------------------------------------------------------------------
Tabbed by: Dallboi
Email: dallboi@hotmail.com

Tuning: EADGBe (Standard)
Capo On Fret 2
 
E  :--------------------|------------9---|
B  :---------9--9--9--9-|--------7---9---|
G  :--------11-11-11-11-|--------9---9---|
D  :--------------------|----------------|
A  :--------------------|----------------|
E  :9---9----9--9--9--9-|7---2-----------|
 
E  :----------------|----------------|--------------------|------------9---|
B  :--------7-7-7-7-|7-7-7-7-7-7-7-7-|---------9--9--9--9-|--------7---9---|
G  :--------6-6-6-6-|6-6-6-6-6-6-6-6-|--------11-11-11-11-|--------9---9---|
D  :----------------|----------------|--------------------|----------------|
A  :----------------|----------------|--------------------|----------------|
E  :5---5---5-5-5-5-|5-5-5-5-5-5-5-5-|9---9----9--9--9--9-|7---2-----------|
 
E  :----------------|----------------|--------------------|------------9---|
B  :--------7-7-7-7-|7-7-7-7-7-7-7-7-|---------9--9--9--9-|--------7---9---|
G  :--------6-6-6-6-|6-6-6-6-6-6-6-6-|--------11-11-11-11-|--------9---9---|
D  :----------------|----------------|--------------------|----------------|
A  :----------------|----------------|--------------------|----------------|
E  :5---5---5-5-5-5-|5-5-5-5-5-5-5-5-|9---9----9--9--9--9-|7---2-----------|
 
E  :----------------|----------------|--------------------|------------9---|
B  :--------7-7-7-7-|7-7-7-7-7-7-7-7-|---------9--9--9--9-|--------7---9---|
G  :--------6-6-6-6-|6-6-6-6-6-6-6-6-|--------11-11-11-11-|--------9---9---|
D  :----------------|----------------|--------------------|----------------|
A  :----------------|----------------|--------------------|----------------|
E  :5---5---5-5-5-5-|5-5-5-5-5-5-5-5-|9---9----9--9--9--9-|7---2-----------|
 
E  :----------------|----------------|------------------------|
B  :--------7-7-7-7-|7-7-7-7-7-7-7-7-|-9--9--9--9--9--9--9--9-|
G  :--------6-6-6-6-|6-6-6-6-6-6-6-6-|11-11-11-11-11-11-11-11-|
D  :----------------|----------------|------------------------|
A  :----------------|----------------|------------------------|
E  :5---5---5-5-5-5-|5-5-5-5-5-5-5-5-|-9--9--9--9--9--9--9--9-|
 
E  :----------------|----------------|------------------------|
B  :7-7-7-7-7-7-7-7-|7-7-7-7-7-7-7-7-|-9--9--9--9--9--9--9--9-|
G  :9-9-9-9-9-9-9-9-|6-6-6-6-6-6-6-6-|11-11-11-11-11-11-11-11-|
D  :----------------|----------------|------------------------|
A  :----------------|----------------|------------------------|
E  :7-7-7-7-7-7-7-7-|5-5-5-5-5-5-5-5-|-9--9--9--9--9--9--9--9-|
 
E  :----------------|----------------|------------------------|
B  :7-7-7-7-7-7-7-7-|7-7-7-7-7-7-7-7-|-9--9--9--9--9--9--9--9-|
G  :9-9-9-9-9-9-9-9-|6-6-6-6-6-6-6-6-|11-11-11-11-11-11-11-11-|
D  :----------------|----------------|------------------------|
A  :----------------|----------------|------------------------|
E  :7-7-7-7-7-7-7-7-|5-5-5-5-5-5-5-5-|-9--9--9--9--9--9--9--9-|
 
E  :----------------|----------------|------------------------|
B  :7-7-7-7-7-7-7-7-|7-7-7-7-7-7-7-7-|-9--9--9--9--9--9--9--9-|
G  :9-9-9-9-9-9-9-9-|6-6-6-6-6-6-6-6-|11-11-11-11-11-11-11-11-|
D  :----------------|----------------|------------------------|
A  :----------------|----------------|------------------------|
E  :7-7-7-7-7-7-7-7-|5-5-5-5-5-5-5-5-|-9--9--9--9--9--9--9--9-|
 
E  :----------------|----------------|9-----9-----9---|12---12---12---12---|
B  :7-7-7-7-7-7-7-7-|7-7-7-7-7-7-7-7-|--2-2---2-2---2-|---2----2----2----2-|
G  :9-9-9-9-9-9-9-9-|6-6-6-6-6-6-6-6-|----------------|--------------------|
D  :----------------|----------------|----------------|--------------------|
A  :----------------|----------------|----------------|--------------------|
E  :7-7-7-7-7-7-7-7-|5-5-5-5-5-5-5-5-|----------------|--------------------|
 
E  :-2--2--2--2--2--2--2--2-|2-2-2-2--2--2--2--2-|9-----9-----9---|
B  :12-12-12-12-12-12-12-12-|9-9-9-9-10-10-10-10-|*-2-2---2-2---2-|
G  :------------------------|2-2-2-2--2--2--2--2-|*---------------|
D  :------------------------|--------------------|----------------|
A  :------------------------|--------------------|----------------|
E  :------------------------|--------------------|----------------|
 
E  :12---12---12---12---|-2--2--2--2--2--2--2--2-|2-2-2-2--2--2--2--2-|
B  :---2----2----2----2-|12-12-12-12-12-12-12-12-|9-9-9-9-10-10-10-10-|
G  :--------------------|------------------------|2-2-2-2--2--2--2--2-|
D  :--------------------|------------------------|--------------------|
A  :--------------------|------------------------|--------------------|
E  :--------------------|------------------------|--------------------|
 
E  :9-----9-----9---|12---12---12---12---|-2--2--2--2--2--2--2--2-|
B  :*-2-2---2-2---2-|---2----2----2----2-|12-12-12-12-12-12-12-12-|
G  :*---------------|--------------------|------------------------|
D  :----------------|--------------------|------------------------|
A  :----------------|--------------------|------------------------|
E  :----------------|--------------------|------------------------|
 
E  :2-2-2-2--2--2--2--2-|9-----9-----9---|12---12---12---12---|
B  :9-9-9-9-10-10-10-10-|*-2-2---2-2---2-|---2----2----2----2-|
G  :2-2-2-2--2--2--2--2-|*---------------|--------------------|
D  :--------------------|----------------|--------------------|
A  :--------------------|----------------|--------------------|
E  :--------------------|----------------|--------------------|
 
E  :-2--2--2--2--2--2--2--2-|2-2-2-2--2--2--2--2-|----------------|
B  :12-12-12-12-12-12-12-12-|9-9-9-9-10-10-10-10-|----------------|
G  :------------------------|2-2-2-2--2--2--2--2-|----------------|
D  :------------------------|--------------------|----------------|
A  :------------------------|--------------------|----------------|
E  :------------------------|--------------------|----------------|
 
E  :----------------|----------------|----------------|--------------------|
B  :----------------|----------------|----------------|---------9--9--9--9-|
G  :----------------|----------------|----------------|--------11-11-11-11-|
D  :----------------|----------------|----------------|--------------------|
A  :----------------|----------------|----------------|--------------------|
E  :----------------|----------------|----------------|9---9----9--9--9--9-|
 
E  :------------9---|----------------|----------------|--------------------|
B  :--------7---9---|--------7-7-7-7-|7-7-7-7-7-7-7-7-|---------9--9--9--9-|
G  :--------9---9---|--------6-6-6-6-|6-6-6-6-6-6-6-6-|--------11-11-11-11-|
D  :----------------|----------------|----------------|--------------------|
A  :----------------|----------------|----------------|--------------------|
E  :7---2-----------|5---5---5-5-5-5-|5-5-5-5-5-5-5-5-|9---9----9--9--9--9-|
 
E  :------------9---|----------------|----------------|--------------------|
B  :--------7---9---|--------7-7-7-7-|7-7-7-7-7-7-7-7-|---------9--9--9--9-|
G  :--------9---9---|--------6-6-6-6-|6-6-6-6-6-6-6-6-|--------11-11-11-11-|
D  :----------------|----------------|----------------|--------------------|
A  :----------------|----------------|----------------|--------------------|
E  :7---0-----------|5---5---5-5-5-5-|5-5-5-5-5-5-5-5-|9---9----9--9--9--9-|
 
E  :------------9---|----------------|----------------|--------------------|
B  :--------7---9---|--------7-7-7-7-|7-7-7-7-7-7-7-7-|---------9--9--9--9-|
G  :--------9---9---|--------6-6-6-6-|6-6-6-6-6-6-6-6-|--------11-11-11-11-|
D  :----------------|----------------|----------------|--------------------|
A  :----------------|----------------|----------------|--------------------|
E  :7---2-----------|5---5---5-5-5-5-|5-5-5-5-5-5-5-5-|9---9----9--9--9--9-|
 
E  :------------9---|----------------|----------------|2-----2-----2---|
B  :--------7---9---|--------7-7-7-7-|7-7-7-7-7-7-7-7-|--5-----5-----5-|
G  :--------9---9---|--------6-6-6-6-|6-6-6-6-6-6-6-6-|----2-----2-----|
D  :----------------|----------------|----------------|----------------|
A  :----------------|----------------|----------------|----------------|
E  :7---2-----------|5---5---5-5-5-5-|5-5-5-5-5-5-5-5-|----------------|
 
E  :--2-----2-----2-|2-2-2-2-2-2-2-2-|2-----2-----2---|2-----2-----2---|
B  :----5-----5-----|7-7-7-7-7-7-7-7-|--4-----4-----4-|--5-----5-----5-|
G  :2-----2-----2---|2-2-2-2-2-2-2-2-|----2-----2-----|----2-----2-----|
D  :----------------|----------------|----------------|----------------|
A  :----------------|----------------|----------------|----------------|
E  :----------------|----------------|----------------|----------------|
 
E  :--2-----2-----2-|2-2-2-2-2-2-2-2-|2-----2-----2---|2-----2-----2---|
B  :----5-----5-----|7-7-7-7-7-7-7-7-|--4-----4-----4-|--5-----5-----5-|
G  :2-----2-----2---|2-2-2-2-2-2-2-2-|----2-----2-----|----2-----2-----|
D  :----------------|----------------|----------------|----------------|
A  :----------------|----------------|----------------|----------------|
E  :----------------|----------------|----------------|----------------|
 
E  :--2-----2-----2-|2-2-2-2-2-2-2-2-|2-----2-----2---|2-----2-----2---|
B  :----5-----5-----|7-7-7-7-7-7-7-7-|--4-----4-----4-|--5-----5-----5-|
G  :2-----2-----2---|2-2-2-2-2-2-2-2-|----2-----2-----|----2-----2-----|
D  :----------------|----------------|----------------|----------------|
A  :----------------|----------------|----------------|----------------|
E  :----------------|----------------|----------------|----------------|
 
E  :--2-----2-----2-|2-2-2-2-2-2-2-2-|2-----2-----2---|
B  :----5-----5-----|7-7-7-7-7-7-7-7-|--4-----4-----4-|
G  :2-----2-----2---|2-2-2-2-2-2-2-2-|----2-----2-----|
D  :----------------|----------------|----------------|
A  :----------------|----------------|----------------|
E  :----------------|----------------|----------------|
 
E  :-------------------------------|-------------------------------|
B  :-------------------------------|-------------------------------|
G  :-------------------------------|-------------------------------|
D  :-------------------------------|-------------------------------|
A  :-------------------------------|-------------------------------|
E  :9-9-9-9-9-9-9-9-9-9-9-9-9-9-9-9|7-7-7-7-7-7-7-7-2-2-2-2-5-5-5-5|
 
E  :-------------------------------|-------------------------------|
B  :-------------------------------|-------------------------------|
G  :-------------------------------|-------------------------------|
D  :-------------------------------|-------------------------------|
A  :-------------------------------|-------------------------------|
E  :5-5-5-5-5-5-5-5-5-5-5-5-5-5-5-5|5-5-5-5-5-5-5-5-5-5-5-5-5-5-5-5|
 
E  :-------------------------------|-------------------------------|
B  :-------------------------------|-------------------------------|
G  :-------------------------------|-------------------------------|
D  :-------------------------------|-------------------------------|
A  :-------------------------------|-------------------------------|
E  :9-9-9-9-9-9-9-9-9-9-9-9-9-9-9-9|7-7-7-7-7-7-7-7-0-0-0-0-5-5-5-5|
 
E  :-------------------------------|-------------------------------|
B  :-------------------------------|-------------------------------|
G  :-------------------------------|-------------------------------|
D  :-------------------------------|-------------------------------|
A  :-------------------------------|-------------------------------|
E  :5-5-5-5-5-5-5-5-5-5-5-5-5-5-5-5|5-5-5-5-5-5-5-5-5-5-5-5-5-5-5-5|
 
E  :-------------------------------|-------------------------------|
B  :-------------------------------|-------------------------------|
G  :-------------------------------|-------------------------------|
D  :-------------------------------|-------------------------------|
A  :-------------------------------|-------------------------------|
E  :9-9-9-9-9-9-9-9-9-9-9-9-9-9-9-9|7-7-7-7-7-7-7-7-2-2-2-2-5-5-5-5|
 
E  :-------------------------------|-------------------------------|
B  :-------------------------------|-------------------------------|
G  :-------------------------------|-------------------------------|
D  :-------------------------------|-------------------------------|
A  :-------------------------------|-------------------------------|
E  :5-5-5-5-5-5-5-5-5-5-5-5-5-5-5-5|5-5-5-5-5-5-5-5-5-5-5-5-5-5-5-5|
 
E  :-------------------------------|-------------------------------|
B  :-------------------------------|-------------------------------|
G  :-------------------------------|-------------------------------|
D  :-------------------------------|-------------------------------|
A  :-------------------------------|-------------------------------|
E  :9-9-9-9-9-9-9-9-9-9-9-9-9-9-9-9|7-7-7-7-7-7-7-7-2-2-2-2-5-5-5-5|
 
E  :-------------------------------|-------------------------------|
B  :-------------------------------|-------------------------------|
G  :-------------------------------|-------------------------------|
D  :-------------------------------|-------------------------------|
A  :-------------------------------|-------------------------------|
E  :5-5-5-5-5-5-5-5-5-5-5-5-5-5-5-5|5-5-5-5-5-5-5-5-5-5-5-5-5-5-5-5|
 
E  :------------------|--------------------|----------------|
B  :-------------9--9-|-9--9--9--9-5-5-5-5-|5-5-7-7-7-7-7-7-|
G  :9-9-9-9-9-9-11-11-|11-11-11-11-7-7-7-7-|7-7-6-6-6-6-6-6-|
D  :------------------|--------------------|----------------|
A  :9-9-9-9-9-9--9--9-|-9--9--9--9-5-5-5-5-|5-5-5-5-5-5-5-5-|
E  :------------------|--------------------|----------------|
 
E  :----------------|------------------|----------------------|
B  :7-7-7-7-7-7-7-7-|12-12-------------|-9--9--9--9--9--9-5-5-|
G  :9-9-9-9-9-9-9-9-|14-14-9-9-9-9-9-9-|11-11-11-11-11-11-7-7-|
D  :----------------|------------------|----------------------|
A  :7-7-7-7-7-7-7-7-|12-12-9-9-9-9-9-9-|-9--9--9--9--9--9-5-5-|
E  :----------------|------------------|----------------------|
 
E  :----------------|----------------|------------------|
B  :5-5-5-5-7-7-7-7-|7-7-7-7-7-7-7-7-|7-7-12-12---------|
G  :7-7-7-7-6-6-6-6-|6-6-9-9-9-9-9-9-|9-9-14-14-9-9-9-9-|
D  :----------------|----------------|------------------|
A  :5-5-5-5-5-5-5-5-|5-5-7-7-7-7-7-7-|7-7-12-12-9-9-9-9-|
E  :----------------|----------------|------------------|
 
E  :----------------------|----------------|----------------|
B  :-----9--9--9--9--9--9-|5-5-5-5-5-5-7-7-|7-7-7-7-7-7-7-7-|
G  :9-9-11-11-11-11-11-11-|7-7-7-7-7-7-6-6-|6-6-6-6-9-9-9-9-|
D  :----------------------|----------------|----------------|
A  :9-9--9--9--9--9--9--9-|5-5-5-5-5-5-5-5-|5-5-5-5-7-7-7-7-|
E  :----------------------|----------------|----------------|
 
E  :------------------|--------------------|------------------|
B  :7-7-7-7-12-12-----|---------9--9--9--9-|-9--9-5-5-5-5-5-5-|
G  :9-9-9-9-14-14-9-9-|9-9-9-9-11-11-11-11-|11-11-7-7-7-7-7-7-|
D  :------------------|--------------------|------------------|
A  :7-7-7-7-12-12-9-9-|9-9-9-9--9--9--9--9-|-9--9-5-5-5-5-5-5-|
E  :------------------|--------------------|------------------| 

E  :----------------|------------------|------------------|
B  :7-7-7-7-7-7-7-7-|7-7-7-7-7-7-12-12-|-------------9--9-|
G  :6-6-6-6-6-6-9-9-|9-9-9-9-9-9-14-14-|9-9-9-9-9-9-11-11-|
D  :----------------|------------------|------------------|
A  :5-5-5-5-5-5-7-7-|7-7-7-7-7-7-12-12-|9-9-9-9-9-9--9--9-|
E  :----------------|------------------|------------------|
 
E  :--------------------|----------------|----------------|
B  :-9--9--9--9-5-5-5-5-|5-5-7-7-7-7-7-7-|7-7-7-7-7-7-7-7-|
G  :11-11-11-11-7-7-7-7-|7-7-6-6-6-6-6-6-|9-9-9-9-9-9-9-9-|
D  :--------------------|----------------|----------------|
A  :-9--9--9--9-5-5-5-5-|5-5-5-5-5-5-5-5-|7-7-7-7-7-7-7-7-|
E  :--------------------|----------------|----------------|
 
E  :------------------|----------------------|----------------|
B  :12-12-------------|-9--9--9--9--9--9-5-5-|5-5-5-5-7-7-7-7-|
G  :14-14-9-9-9-9-9-9-|11-11-11-11-11-11-7-7-|7-7-7-7-6-6-6-6-|
D  :------------------|----------------------|----------------|
A  :12-12-9-9-9-9-9-9-|-9--9--9--9--9--9-5-5-|5-5-5-5-5-5-5-5-|
E  :------------------|----------------------|----------------|
 
E  :----------------|------------------|----------------------|
B  :7-7-7-7-7-7-7-7-|7-7-12-12---------|-----9--9--9--9--9--9-|
G  :6-6-9-9-9-9-9-9-|9-9-14-14-9-9-9-9-|9-9-11-11-11-11-11-11-|
D  :----------------|------------------|----------------------|
A  :5-5-7-7-7-7-7-7-|7-7-12-12-9-9-9-9-|9-9--9--9--9--9--9--9-|
E  :----------------|------------------|----------------------|
 
E  :----------------|----------------|------------------|
B  :5-5-5-5-5-5-7-7-|7-7-7-7-7-7-7-7-|7-7-7-7-12-12-----|
G  :7-7-7-7-7-7-6-6-|6-6-6-6-9-9-9-9-|9-9-9-9-14-14-9-9-|
D  :----------------|----------------|------------------|
A  :5-5-5-5-5-5-5-5-|5-5-5-5-7-7-7-7-|7-7-7-7-12-12-9-9-|
E  :----------------|----------------|------------------|
 
E  :--------------------|------------------|----------------|
B  :---------9--9--9--9-|-9--9-5-5-5-5-5-5-|7-7-7-7-7-7-7-7-|
G  :9-9-9-9-11-11-11-11-|11-11-7-7-7-7-7-7-|6-6-6-6-6-6-9-9-|
D  :--------------------|------------------|----------------|
A  :9-9-9-9--9--9--9--9-|-9--9-5-5-5-5-5-5-|5-5-5-5-5-5-7-7-|
E  :--------------------|------------------|----------------|
 
E  :------------------|-------------------|----------------|
B  :7-7-7-7-7-7-12-12-|-------------------|-----------7----|
G  :9-9-9-9-9-9-14-14-|-------------------|-----------6----|
D  :------------------|-------------------|----------------|
A  :7-7-7-7-7-7-12-12-|-------------------|----------------|
E  :------------------|9-----9--9-9-9-7--0|--0--5----------|
 
E  :----------------|-------------------|----------------|----------------|
B  :----7--------7--|-------------------|-----------7----|----7-----------|
G  :----6--------6--|-------------------|-----------6----|----6-----------|
D  :----------------|-------------------|----------------|----------------|
A  :----------------|-------------------|----------------|----------------|
E  :-5--------5-----|9-----9--9-9-9-7--0|--0--5----------|-5--------------|
 
E  :-------------------|----------------|----------------|
B  :-------------------|-----------7----|----7--------7--|
G  :-------------------|-----------6----|----6--------6--|
D  :-------------------|----------------|----------------|
A  :-------------------|----------------|----------------|
E  :9-----9--9-9-9-7--0|--0--5----------|-5--------5-----|
 
E  :-------------------|----------------|----------------|
B  :-------------------|-----------7----|----7-----------|
G  :-------------------|-----------6----|----6-----------|
D  :-------------------|----------------|----------------|
A  :-------------------|----------------|----------------|
E  :9-----9--9-9-9-7--0|--0--5----------|-5--------------|
 
E  :2-(2)---2-(2)---2-(2)-|--2-(2)-----2-----|------2---------9-|
B  :5-(7)---7-(4)---4-(2)-|--7-(9)-----9-----|------9-------9---|
G  :2-(2)---2-(2)---2-(2)-|--2-(2)-----2-----|------2-----2-----|
D  :----------------------|------------------|------------------|
A  :----------------------|------------------|------------------|
E  :----------------------|------------------|------------------|
 
E  :2-(2)---2-(2)---2-(2)-|--2-(2)-----2-----|------2---------9-|
B  :5-(7)---7-(4)---4-(2)-|--7-(9)-----9-----|------9-------9---|
G  :2-(2)---2-(2)---2-(2)-|--2-(2)-----2-----|------2-----2-----|
D  :----------------------|------------------|------------------|
A  :----------------------|------------------|------------------|
E  :----------------------|------------------|------------------|
 
E  :2-(2)---2-(2)---2-(2)-|--2-(2)-----2-----|------2---------9-|
B  :5-(7)---7-(4)---4-(2)-|--7-(9)-----9-----|------9-------9---|
G  :2-(2)---2-(2)---2-(2)-|--2-(2)-----2-----|------2-----2-----|
D  :----------------------|------------------|------------------|
A  :----------------------|------------------|------------------|
E  :----------------------|------------------|------------------|
 
E  :2-(2)---2-(2)---2-(2)-|--2-(2)-----2-----|------2---------9-|
B  :5-(7)---7-(4)---4-(2)-|--7-(9)-----9-----|------9-------9---|
G  :2-(2)---2-(2)---2-(2)-|--2-(2)-----2-----|------2-----2-----|
D  :----------------------|------------------|------------------|
A  :----------------------|------------------|------------------|
E  :----------------------|------------------|------------------|
 
E  :--------------------|----------------|------------------|
B  :---------9--9--9--9-|5-5-5-5-7-7-7-7-|7-7-7-7-7-7-12-12-|
G  :9-9-9-9-11-11-11-11-|7-7-7-7-6-6-6-6-|9-9-9-9-9-9-14-14-|
D  :--------------------|----------------|------------------|
A  :9-9-9-9--9--9--9--9-|5-5-5-5-5-5-5-5-|7-7-7-7-7-7-12-12-|
E  :--------------------|----------------|------------------|
 
E  :--------------------|----------------|------------------|
B  :---------9--9--9--9-|5-5-5-5-7-7-7-7-|7-7-7-7-7-7-12-12-|
G  :9-9-9-9-11-11-11-11-|7-7-7-7-6-6-6-6-|9-9-9-9-9-9-14-14-|
D  :--------------------|----------------|------------------|
A  :9-9-9-9--9--9--9--9-|5-5-5-5-5-5-5-5-|7-7-7-7-7-7-12-12-|
E  :--------------------|----------------|------------------|
 
E  :----------------|
B  :----------------|
G  :----------------|
D  :----------------|
A  :*---------------|
E  :----------------|
Добавлено: 09.06.2013
Другие материалы по этой песне:
  • Аккорды и текст

Страница создана 09.06.2013
http://primanota.ru/misc-unsigned-bands/city-of-ifa-dry-seasons-part-2-chords.htm
Привет, Гость.
Предлагаем пройти революционный курс по гитаре.
Подарок от PrimaNota.Ru, забирай!