PrimaNota.ru - самый крупный в мире бесплатный архив песенных текстов, аккордов, табулатур и нот


Misc Unsigned Bands - City Of Ifa - Pygmy Jerboa - таба

Регистрация Запомнить меня
Войти через:  Facebook Google Twitter Vk Yandex Mail.ru

Misc Unsigned Bands - City Of Ifa - Pygmy Jerboa - таба

Печатать
Просмотров: 83
-------------------------------------------------------------------------------
                Pygmy Jerboa  - City of Ifa
-------------------------------------------------------------------------------
Tabbed by: Dallboi
Email: dallboi@hotmail.com

Tuning: Standard
Capo Fret 2


Probably not 100%, my first transcribed tab. Pretty rough in timing, you'll have to 
figure that out with the song.
If anyone knows the part between 1.08-1.19 min please email me and I'll edit the tab. 
Also if there are any wrong parts email me.


e|-----------------------------------|
B|----12p0----9p0----7p0----5p0--5p0-|
G|-----------------------------------|
D|-----------------------------------|
A|-12-------9------7------5----5-----|
E|-----------------------------------|

e|-------------------5p0-------|
B|-7p0---5p0-----4p0----5p0----|
G|----6p0---6p0------------5p0-|
D|-----------------------------|
A|-----------------------------|
E|-----------------------------|

e|---------------9p0------7p5p0-----------|
B|------9p0---9p0-----7p0------7p5p0------|
G|---9p0---9p0----------------------7p5p0-| Tapped
D|----------------------------------------|
A|-7--------------------------------------|
E|----------------------------------------|

e|-----------------------------------|
B|----12p0----9p0----7p0----5p0--5p0-|
G|-----------------------------------|
D|-----------------------------------|
A|-12-------9------7------5----5-----|
E|-----------------------------------|

e|---9--9---14-14-----9---9-----------9---9--14-14-----9---9-----21-|
B|-----------------------------12-----------------------------------|
G|------------------------------------------------------------18----|
D|-7--7-----12-12----7---7-----------7---7---12-12----7---7---------|
A|-----------------------------12-----------------------------------|
E|------------------------------------------------------------------|

e|---------------------------------------------------------------------------|
B|---------------------------------------------------------------------------|
G|---------------------------------------------------------------------------| To Be Tabbed
D|---------------------------------------------------------------------------|
A|---------------------------------------------------------------------------|
E|---------------------------------------------------------------------------|

e|-----------------------------------|
B|---9p0--------7p0------5p3p0-------|
G|-------9p0--------7p0--------6p4p0-| Tapped
D|-----------------------------------|
A|-7----------5----------------------|
E|-----------------------------------|

e|-------------------------9p7p0-------------|
B|---9p0------7p0-7p0------------9p7p0-------|
G|-------9p0----------7p0--------------7p5p0-| Tapped
D|-------------------------------------------|
A|-7-----------------------------------------|
E|-------------------------------------------|


e|-----------------------(7)-|
B|---9p0--------7p0------(7)-|
G|-------9p0--------7p0--(7)-| Tapped
D|---------------------------|
A|-7----------5--------------|
E|---------------------------|

e|---------------------------------|
B|---9p0--------7p0--------3--1--0-|
G|-------9p0--------7p0------------| Tapped
D|---------------------------------|
A|-7----------5------------3--3--2-|
E|---------------------------------|

e|--------------------------------------------------|
B|--9-9-9-9-7-7-5-5---------9-9-9-9-7-7-5-5---------|
G|------------------7-7-6-6-----------------7-7-6-6-|
D|--------------------------------------------------|
A|-5-5-5-5-5-5-5-5-4-4-4-4-5-5-5-5-5-5-5-5-4-4-4-4--|
E|--------------------------------------------------|

e|---------------------------------------------------------------------------------------|
B|--9-9-9-9-7-7-5-5---------9-9-9-9-7-7-5-5-------------------------------------------12-|
G|------------------7-7-6-6-----------------7-7-6-6-6-6-7-7-6-6-6-6-7-7-6-6-6-6--6-------|
D|------------------------------------------------------------------------------------11-|
A|-5-5-5-5-5-5-5-5-4-4-4-4-5-5-5-5-5-5-5-5-4-4-4-4-4-4-4-4-4-4-4-4-4-4-4-4-4-4--4-----12-|
E|---------------------------------------------------------------------------------------|

e|------------------------------------------------------------------|
B|---12--12--12--12--12--12--12--12--12--12--12--12--12--12--12--12-|
G|------------------------------------------------------------------|
D|------------------------------------------------------------------|
A|-12--12--12--12--12--12--12--12--12--12--12--12--12--12--12--12---|
E|------------------------------------------------------------------|

e|------------------------------------------------------------------|
B|---12--12--12--12--12--12--12--12--12--12--12--12--12--12--12--12-|
G|------------------------------------------------------------------|
D|------------------------------------------------------------------|
A|-----12--12--12--12--12--12--12------12--12--12--12--12--12--12---|
E|--0-------------------------------0-------------------------------|

e|------------------------------------------------------------------|
B|---12--12--12--12--12--12--12--12--12--12--12--12--12--12--12--12-|
G|------------------------------------------------------------------|
D|------------------------------------------------------------------|
A|-----12--12--12------12--12--12------12--12--12------12------12---|
E|--0---------------0---------------0---------------0-------0-------|

e|------------------------------------------------------------------|
B|---12--12--12--12--12--12--12--12--12--12--12--12--12--12--12--12-|
G|------------------------------------------------------------------|
D|------------------------------------------------------------------|
A|-----12--12--12------12--12--12------12--12--12------12------12---|
E|-10--------------10--------------10--------------10------10-------|

e|------------------------------------------------------------------|
B|---12--12--12--12--12--12--12--12--12--12--12--12--12--12--12--12-|
G|------------------------------------------------------------------|
D|------------------------------------------------------------------|
A|-----12--12--12------12--12--12------12--12--12------12------12---|
E|--9---------------9---------------9---------------9-------9-------|

e|------------------------------------------------------------------|
B|---12--12--12--12--12--12--12--12--12--12--12--12--12--12--12--12-|
G|------------------------------------------------------------------|
D|------------------------------------------------------------------|
A|-----12--12--12------12--12--12------12--12--12------12------12---|
E|-12--------------12--------------12--------------12------12-------|

e|----------------------------------------------------------------|
B|-12------12------12------12------12------12------12------12-----|
G|----------------------------------------------------------------|
D|----x32-----x32-----x32-----x32-----x32---- x32-----x32-----x32-|
A|-12------12------12------12------12------12------12------12-----|
E|--0------10-------9------12-------0------10-------9------12-----|

e|------------------------------------------------------|
B|-12121212-9999-7777-5555--12121212-9999-7777-5555--12-|
G|------------------------------------------------------|
D|-11111111-8888-6666-4444--11111111-8888-6666-4444--11-|
A|-12121212-9999-7777-5555--12121212-9999-7777-5555--12-|
E|------------------------------------------------------|

------------------------------------------------|
-1212-9999-7777-5555-12121212-9999-7777-5-5-5-5-|
------------------------------------------------|
-1111-8888-6666-4444-11111111-8888-6666-4-4-4-4-|
-1212-9999-7777-5555-12121212-9999-7777-5-5-5-5-|
------------------------------------------------|

e|---------------------------------------------------------------------|
B|-12121212-9999-7777-5555--12121212-9999-7777-5555--12----9----7----5-|
G|---------------------------------------------------------------------|
D|-11111111-8888-6666-4444--11111111-8888-6666-4444--11----8----6----4-|
A|-12121212-9999-7777-5555--12121212-9999-7777-5555--12----9----7----5-|
E|---------------------------------------------------------------------|

e|---9--9---14-14-----9---9-----------9---9--14-14-----9---9-----21-|
B|-----------------------------12-----------------------------------|
G|------------------------------------------------------------18----|
D|-7--7-----12-12----7---7-----------7---7---12-12----7---7---------|
A|-----------------------------12-----------------------------------|
E|------------------------------------------------------------------|

************************************

| /   slide up
| \   slide down
| h   hammer-on
| p   pull-off
| ~   vibrato
| +   harmonic
| x   Mute note
| b   Bend
| pb  Pre-bend
| br  Bend release
| pbr Pre-bend release
| brb Bend release bend

************************************
Добавлено: 22.08.2013
Другие материалы по этой песне:
  • Аккорды и текст

Страница создана 22.08.2013
http://primanota.ru/misc-unsigned-bands/city-of-ifa-pygmy-jerboa-chords.htm
Привет, Гость.
Предлагаем пройти революционный курс по гитаре.
Подарок от PrimaNota.Ru, забирай!