PrimaNota.ru - самый крупный в мире бесплатный архив песенных текстов, аккордов, табулатур и нот


Misc Unsigned Bands - City Of Ifa - Owl Eyes - таба

Регистрация Запомнить меня
Войти через:  Facebook Google Twitter Vk Yandex Mail.ru

Misc Unsigned Bands - City Of Ifa - Owl Eyes - таба

Печатать
Просмотров: 44
-------------------------------------------------------------------------------
                             OWL EYES - City of Ifa
-------------------------------------------------------------------------------
Tabbed by: Dallboi
Email: dallboi@hotmail.com

Tuning: FACGCe


E  :----------------|12----0-----0-----|--------12-*-12----0-|
C  :----------------|-0---12-----7---5-|--------------0---12-|
G  :----------------|12-*--0-----0---0-|-----12------12-*--0-|
C  :----------------|-----12-----7---5-|--12--------------12-|
A  :----------------|------0-----0-*-0-|-------------------0-|
F  :----------------|------0-----0---0-|-------------------0-|
 
E  :----0-----------|--------12----0---|--0-------0-0---|
C  :----7---5---5-5-|5-5-5-5--0---12---|--7---5---2-4---|
G  :----0---0---0-0-|0-0-0-0-12-*--0---|--0---0---0-0---|
C  :----7---5---5-5-|5-5-5-5------12---|--7---5---2-4---|
A  :----0-*-0---0-0-|0-0-0-0-------0---|--0-*-0---------|
F  :----0---0---0-0-|0-0-0-0-------0---|--0---0---------|
 
E  :0-0-------12----0---|--0------------------|12----0-----0-----|
C  :2-4--------0---12---|--7---5--*-----------|-0---12-----7---5-|
G  :0-0-5-4-0-12-*--0---|--0---0--5-4-0-------|12-*--0-----0---0-|
C  :2-4------------12---|--7---5--*-----5-4-0-|-----12-----7---5-|
A  :----------------0---|--0-*-0--------------|------0-----0-*-0-|
F  :----------------0---|--0---0--------------|------0-----0---0-|
 
E  :--------------12-|---0-----0-------|----0-----*-------|----------------|
C  :--5-5-5-5-5-5--0-|--12-----7---5---|----2-----0-0-0-0-|0-0-0-0-0-0-0-0-|
G  :--0-0-0-0-0-0-12-|*--0-----0---0---|--0-------0-0-0-0-|0-0-0-0-0-0-0-0-|
C  :--5-5-5-5-5-5----|--12-----7---5---|2---------5-5-5-5-|5-5-5-5-7-7-7-7-|
A  :--0-0-0-0-0-0----|---0-----0-*-0---|----------3-3-3-3-|3-3-3-3-5-5-5-5-|
F  :--0-0-0-0-0-0----|---0-----0---0---|----------4-4-4-4-|4-4-4-4-6-6-6-6-|
 
E  :---------0--0--0--0-|-0--0--0--0--0--0--0--0-|-0--0--0--0-12----0---|
C  :0-0-0-0--0--0--0--0-|-0--0--0--0--0--0--0--0-|-0--0--0--0--0---12---|
G  :0-0-0-0--0--0--0--0-|-0--0--0--0--0--0--0--0-|-0--0--0--0-12-*--0---|
C  :7-7-7-7-12-12-12-12-|12-12-12-12-12-12-12-12-|12-12-12-12------12---|
A  :5-5-5-5-10-10-10-10-|10-10-10-10-10-10-10-10-|10-10-10-10-------0---|
F  :6-6-6-6-11-11-11-11-|11-11-11-11-11-11-11-11-|11-11-11-11-------0---|
 
E  :--0-------------|------12----0-----|0-------0-0---0-|
C  :--7---5---5-5-5-|5-5-5--0---12-----|7---5---2-4---2-|
G  :--0---0---0-0-0-|0-0-0-12-*--0-----|0---0---0-0---0-|
C  :--7---5---5-5-5-|5-5-5------12-----|7---5---2-4---2-|
A  :--0-*-0---0-0-0-|0-0-0-------0-----|0-*-0-----------|
F  :--0---0---0-0-0-|0-0-0-------0-----|0---0-----------|
 
E  :0-------12----0-----|0------------------12-|---0-----0-------|
C  :4--------0---12-----|7---5--*------------0-|--12-----7---5---|
G  :0-5-4-0-12-*--0-----|0---0--5-4-0-------12-|*--0-----0---0---|
C  :4------------12-----|7---5--*-----5-4-0----|--12-----7---5---|
A  :--------------0-----|0-*-0-----------------|---0-----0-*-0---|
F  :--------------0-----|0---0-----------------|---0-----0---0---|
 
E  :------------12---|-0-----0----------|0-----*---------|----------------|
C  :5-5-5-5-5-5--0---|12-----7---5------|2-----0-0-0-0-0-|0-0-0-0-0-0-0-0-|
G  :0-0-0-0-0-0-12-*-|-0-----0---0-----0|------0-0-0-0-0-|0-0-0-0-0-0-0-0-|
C  :5-5-5-5-5-5------|12-----7---5---2--|------5-5-5-5-5-|5-5-5-7-7-7-7-7-|
A  :0-0-0-0-0-0------|-0-----0-*-0------|------3-3-3-3-3-|3-3-3-5-5-5-5-5-|
F  :0-0-0-0-0-0------|-0-----0---0------|------4-4-4-4-4-|4-4-4-6-6-6-6-6-|
 
E  :-------0--0--0--0--0-|-0--0--0--0--0--0--0--0-|-0--0--0-----------|
C  :0-0-0--0--0--0--0--0-|-0--0--0--0--0--0--0--0-|-0--0--0---0-----0-|
G  :0-0-0--0--0--0--0--0-|-0--0--0--0--0--0--0--0-|-0--0--0---2-----2-|
C  :7-7-7-12-12-12-12-12-|12-12-12-12-12-12-12-12-|12-12-12-xx0---xx0-|
A  :5-5-5-10-10-10-10-10-|10-10-10-10-10-10-10-10-|10-10-10-xx2---xx2-|
F  :6-6-6-11-11-11-11-11-|11-11-11-11-11-11-11-11-|11-11-11-xx0---xx0-|
 
E  :----------------|-----------------|------------0---|---------12-------|
C  :----0--0--0-0---|-------------0---|------------4---|----12---12-------|
G  :----2--2--2-2---|------------12---|------------0---|---------12-------|
C  :--xx0--0--0-0---|-------------0---|------------4---|---------12-------|
A  :--xx2--2--2-2---|------------12---|------------0---|---------12-------|
F  :--xx0--0--0-0---|-------------0---|------------0---|---------12-------|
 
E  :-------------------------------|-------------------------------|
C  :-------------------------------|-------------------------------|
G  :7-5-0-------9-7-0-------5-4-0--|----5-4-0-------7-5-0-------9-7|
C  :------7-5-0-------9-7-0-------5|4-0-------5-4-0-------7-5-0----|
A  :-------------------------------|-------------------------------|
F  :-------------------------------|-------------------------------|
 
E  :------------------12--|-------------------------------|
C  :---------------0------|-------------------------------|
G  :0----------12---------|7-5-0-------9-7-0-------5-4-0--|
C  :--9-7-0-0-------------|------7-5-0-------9-7-0-------5|
A  :----------------------|-------------------------------|
F  :----------------------|-------------------------------|
 
E  :-------------------------------|---------------------------------------|
C  :-------------------------------|------------------------12-11-0--------|
G  :----5-4-0-------7-5-0-------9-7|0-------12-11-0-----------------12-11-0|
C  :4-0-------5-4-0-------7-5-0----|--9-7-0---------12-11-0----------------|
A  :-------------------------------|---------------------------------------|
F  :-------------------------------|---------------------------------------|
 
E  :-------------------------------|-------------------------------|
C  :-------------------------------|-------------------------------|
G  :7-5-0-------9-7-0-------5-4-0--|----5-4-0-------7-5-0-------9-7|
C  :------7-5-0-------9-7-0-------5|4-0-------5-4-0-------7-5-0----|
A  :-------------------------------|-------------------------------|
F  :-------------------------------|-------------------------------|
 
E  :-----------------------------------|-------------------------------|
C  :-----------------------------------|-------------------------------|
G  :0-------12-11-0---------5-4-0------|7-5-0-------9-7-0-------5-4-0--|
C  :--9-7-0---------12-11-0-------5-4-0|------7-5-0-------9-7-0-------5|
A  :-----------------------------------|-------------------------------|
F  :-----------------------------------|-------------------------------|
 
E  :-------------------------------|---------------------------------------|
C  :-------------------------------|------------------------12-11-0--------|
G  :----5-4-0-------7-5-0-------9-7|0-------12-11-0-----------------12-11-0|
C  :4-0-------5-4-0-------7-5-0----|--9-7-0---------12-11-0----------------|
A  :-------------------------------|---------------------------------------|
F  :-------------------------------|---------------------------------------|
 
E  :12----0-----0-----|--12----0-----0---|----------------|
C  :-0---12-----7---5-|---0---12-----7---|5---5-5-5-5-5-5-|
G  :12-*--0-----0---0-|--12-*--0-----0---|0---0-0-0-0-0-0-|
C  :-----12-----7---5-|-------12-----7---|5---5-5-5-5-5-5-|
A  :------0-----0-*-0-|--------0-----0-*-|0---0-0-0-0-0-0-|
F  :------0-----0---0-|--------0-----0---|0---0-0-0-0-0-0-|
 
E  :12----0-----0-----|--0-0---0-0---12-|---0-----0-------|
C  :-0---12-----7---5-|--2-4---2-4----0-|--12-----7---5---|
G  :12-*--0-----0---0-|--0-0---0-0---12-|*--0-----0---0---|
C  :-----12-----7---5-|--2-4---2-4------|--12-----7---5---|
A  :------0-----0-*-0-|-----------------|---0-----0-*-0---|
F  :------0-----0---0-|-----------------|---0-----0---0---|
 
E  :----0-----*-------|----------------|---------0--0--0--0-|
C  :----2-----0-0-0-0-|0-0-0-0-0-0-0-0-|0-0-0-0--0--0--0--0-|
G  :--0-------0-0-0-0-|0-0-0-0-0-0-0-0-|0-0-0-0--0--0--0--0-|
C  :2---------5-5-5-5-|5-5-5-5-7-7-7-7-|7-7-7-7-12-12-12-12-|
A  :----------3-3-3-3-|3-3-3-3-5-5-5-5-|5-5-5-5-10-10-10-10-|
F  :----------4-4-4-4-|4-4-4-4-6-6-6-6-|6-6-6-6-11-11-11-11-|
 
E  :-0--0--0--0--0--0--0--0-|-0--0--0--0-------------|
C  :-0--0--0--0--0--0--0--0-|-0--0--0--0--0--0--0--0-|
G  :-0--0--0--0--0--0--0--0-|-0--0--0--0--0--0--0--0-|
C  :12-12-12-12-12-12-12-12-|12-12-12-12-12-12-12-12-|
A  :10-10-10-10-10-10-10-10-|10-10-10-10-12-12-12-12-|
F  :11-11-11-11-11-11-11-11-|11-11-11-11--0--0--0--0-|
 
E  :-----------------------|--------------------|--------5---12---|
C  :-----------------------|-0--0--0--0---------|--------0----0---|
G  :--0---0---------4-0----|-0--0--0--0---0---0-|--0---0-0----0---|
C  :xx2-xx2-----2-0-----4-0|12-12-12-12-xx2-xx2-|xx7-xx5----------|
A  :xx2-xx2-2-0------------|12-12-12-12-xx2-xx2-|xx7-xx5----------|
F  :xx0-xx0----------------|-0--0--0--0-xx0-xx0-|xx0-xx0----------|
 
E  :--------------------|--------------------|--------------------|
C  :-0--0--0--0---------|-0--0--0--0---------|-0--0--0--0---------|
G  :-0--0--0--0---0---0-|-0--0--0--0-0-------|-0--0--0--0---0---0-|
C  :12-12-12-12-xx2-xx2-|12-12-12-12-2-------|12-12-12-12-xx2-xx2-|
A  :12-12-12-12-xx2-xx2-|12-12-12-12-2-------|12-12-12-12-xx2-xx2-|
F  :-0--0--0--0-xx0-xx0-|-0--0--0--0-0-------|-0--0--0--0-xx0-xx0-|
 
E  :--------5---12-12-12-12|--------------------|
C  :--------0----0--0--0--0|-0--0--0--0---------|
G  :--0---0-0----0--0--0--0|-0--0--0--0---0---0-|
C  :xx7-xx5----------------|12-12-12-12---2---2-|
A  :xx7-xx5----------------|12-12-12-12--*2--*2-|
F  :xx0-xx0----------------|-0--0--0--0---0---0-|
 
E  :--------------------------3--|--------------------|----------------|
C  :--------------------2-4-0----|---0--0--0--0-------|------0---------|
G  :*-----------2-4-2-0----------|---0--0--0--0---0---|0-----0---------|
C  :*-----2-4-0------------------|--12-12-12-12-xx2-xx|2-----7---------|
A  :2-3-0------------------------|--12-12-12-12-xx2-xx|2-----7---------|
F  :*----------------------------|---0--0--0--0-xx0-xx|0-----0---------|
 
E  :--------------------|----------------|--------------------|
C  :-0--0--0--0---0-----|--0-0-0-0-0-----|-0--0--0--0---0-----|
G  :-0--0--0--0---0---0-|--2-2-2-0-0-0-0-|-0--0--0--0---0---0-|
C  :12-12-12-12---2---0-|--0-0-0-2-2-0-0-|12-12-12-12---2---0-|
A  :12-12-12-12---2---2-|--2-2-2-2-2-2-2-|12-12-12-12---2---2-|
F  :-0--0--0--0---0---0-|--0-0-0-0-0-0-0-|-0--0--0--0---0---0-|
 
E  :----------------|--------------------|----------------|
C  :--0-0-0-0-0-----|-0--0--0--0---0-----|--0-0-0-0-0-----|
G  :--2-2-2-0-0-0-0-|-0--0--0--0---0---0-|--2-2-2-0-0-0-0-|
C  :--0-0-0-2-2-0-0-|12-12-12-12---2---0-|--0-0-0-2-2-0-0-|
A  :--2-2-2-2-2-2-2-|12-12-12-12---2---2-|--2-2-2-2-2-2-2-|
F  :--0-0-0-0-0-0-0-|-0--0--0--0---0---0-|--0-0-0-0-0-0-0-|
 
E  :--------------------|----------------|----------------|
C  :-0--0--0--0---0-----|--0-0-0-0-0-----|----------------|
G  :-0--0--0--0---0---0-|--2-2-2-0-0-0-0-|----------------|
C  :12-12-12-12---2---0-|--0-0-0-2-2-0-0-|----------------|
A  :12-12-12-12---2---2-|--2-2-2-2-2-2-2-|*---------------|
F  :-0--0--0--0---0---0-|--0-0-0-0-0-0-0-|----------------|
 
E  :-------12----------|--0-----------0-|----------0-----|
C  :-----0----0--------|7---7-------2---|0-------5---5---|
G  :--12--------12---0-|------0---0-----|--2---0-------0-|
C  :0--------------7---|--------2-------|----5-----------|
A  :-------------------|----------------|----------------|
F  :-------------------|----------------|----------------|
 
E  :-------------------|--------------0-|----------0-----|
C  :-------12----------|--4---------5---|5-------5---5---|
G  :-----0----0--------|0---0-----0-----|--0---0-------0-|
C  :--12--------12---4-|------4-5-------|----5-----------|
A  :0--------------0---|----------------|----------------|
F  :-------------------|----------------|----------------|
 
E  :-------12----------|--0-----------0-|----------0-----|
C  :-----0----0--------|7---7-------2---|0-------5---5---|
G  :--12--------12---0-|------0---0-----|--2---0-------0-|
C  :0--------------7---|--------2-------|----5-----------|
A  :-------------------|----------------|----------------|
F  :-------------------|----------------|----------------|
 
E  :-------------------|--------------0-|----------0-----|
C  :-------12----------|--4---------5---|5-------5---5---|
G  :-----0----0--------|0---0-----0-----|--0---0-------0-|
C  :--12--------12---4-|------4-5-------|----5-----------|
A  :0--------------0---|----------------|----------------|
F  :-------------------|----------------|----------------|
 
E  :-------12----------|--0-----------0-|----------0-----|
C  :-----0----0--------|7---7-------2---|0-------5---5---|
G  :--12--------12---0-|------0---0-----|--2---0-------0-|
C  :0--------------7---|--------2-------|----5-----------|
A  :-------------------|----------------|----------------|
F  :-------------------|----------------|----------------|
 
E  :-------------------|--------------0-|----------0-----|
C  :-------12----------|--4---------5---|5-------5---5---|
G  :-----0----0--------|0---0-----0-----|--0---0-------0-|
C  :--12--------12---4-|------4-5-------|----5-----------|
A  :0--------------0---|----------------|----------------|
F  :-------------------|----------------|----------------|
 
E  :-------12----------|--0-----------0-|----------0-----|
C  :-----0----0--------|7---7-------2---|0-------5---5---|
G  :--12--------12---0-|------0---0-----|--2---0-------0-|
C  :0--------------7---|--------2-------|----5-----------|
A  :-------------------|----------------|----------------|
F  :-------------------|----------------|----------------|
 
E  :-------------------|--------------0-|----------0-----|----------------|
C  :-------12----------|--4---------5---|5-------5---5---|----------------|
G  :-----0----0--------|0---0-----0-----|--0---0-------0-|----------------|
C  :--12--------12---4-|------4-5-------|----5-----------|*---------------|
A  :0--------------0---|----------------|----------------|----------------|
F  :-------------------|----------------|----------------|----------------|
Добавлено: 09.06.2013
Другие материалы по этой песне:
  • Аккорды и текст

Страница создана 09.06.2013
http://primanota.ru/misc-unsigned-bands/city-of-ifa-owl-eyes-chords.htm
Привет, Гость.
Предлагаем пройти революционный курс по гитаре.
Подарок от PrimaNota.Ru, забирай!