PrimaNota.ru - самый крупный в мире бесплатный архив песенных текстов, аккордов, табулатур и нот


Misc Unsigned Bands - City Of Ifa - Sorry Kiddo - таба

Регистрация Запомнить меня
Войти через:  Facebook Google Twitter Vk Yandex Mail.ru

Misc Unsigned Bands - City Of Ifa - Sorry Kiddo - таба

Печатать
Просмотров: 48
-------------------------------------------------------------------------------
                             SORRY KIDDO! - City of Ifa
-------------------------------------------------------------------------------
Tabbed by: Dallboi
Email: dallboi@hotmail.com

Tuning: EADGBe (Standard)


E  :----------------|---------------------|-------------------------------|
B  :----------------|10-*-10-*-10-10-10---|--------7-0-----------------7-0|
G  :----------------|-9----9----9--9--9-*-|--7-0-----------------7-0------|
D  :----------------|---------------------|5-----5-----5-5-5-5-5-----5----|
A  :----------------|-9----9----9--9--9---|-------------------------------|
E  :----------------|---------------------|-------------------------------|
 
E  :--------3-6-0------------------|--------------------3-5-0--|
B  :--------------3-5-0------------|------7-0------------------|
G  :-------------------------------|------------7-0-7---------5|
D  :3-3-3-3-------------3-3-3-3-5-5|5-5-5-----5----------------|
A  :-------------------------------|---------------------------|
E  :-------------------------------|---------------------------|
 
E  :----------------3-5-0----------|-------------------------------|
B  :------7-0---------------------7|0-------3-5-0------------------|
G  :7-0---------7-0-------5-7-0----|----7-0-------3-4-0---9-0---7-0|
D  :----5-----5-----------------5--|--5-----------------5-----5----|
A  :-------------------------------|-------------------------------|
E  :-------------------------------|-------------------------------|
 
E  :-----------------------------|----7-5-0-2-4-0-------3-5-7-7-9|
B  :--5-3-0-----------5-3-0------|----------------3-5-7----------|
G  :--------4-5-7-5-4-------4-5-7|5-4----------------------------|
D  :-----------------------------|-------------------------------|
A  :-----------------------------|-------------------------------|
E  :-----------------------------|-------------------------------|
 
E  :0--------------7-9-11-7-9-7------|------5-7-5-------------2-4-2--|
B  :--7-8-0-7-9-11--------------7-9-7|------------5-7-5-------------2|
G  :---------------------------------|7-9-7-------------5-7-5--------|
D  :---------------------------------|-------------------------------|
A  :---------------------------------|-------------------------------|
E  :---------------------------------|-------------------------------|
 
E  :--------------------|----------------|----------------|----------------|
B  :4-2-----------------|----------------|----------------|----------------|
G  :----2-4-2*----------|----------------|----------------|----------------|
D  :--------------------|----------------|----------------|----------------|
A  :--------------------|----------------|----------------|----------------|
E  :--------------------|----------------|----------------|----------------|
 
E  :-----------------------------|-------------------------------|
B  :-----------------------------|-------------------------------|
G  :-----------------------------|-------------------------------|
D  :--------3-5-0-3-0-7-0-5-0-3-5|0-5-----------3-5-0-6-0-6-0-5-0|
A  :--3-5-0----------------------|----3-0-3-5-0------------------|
E  :-----------------------------|-------------------------------|
 
E  :-----------------------------|--------------------3-6-0------|
B  :------------------7-0--------|--------7-0---------------3-5-0|
G  :------------7-0--------------|--7-0--------------------------|
D  :3-5-0-----5-----5-----5-5-5-5|5-----5-----3-3-3-3------------|
A  :------5-0--------------------|-------------------------------|
E  :-----------------------------|-------------------------------|
 
E  :------------------------------|--3-5-0-------------------3-5|
B  :------------------7-0---------|----------------7-0----------|
G  :------------------------7-0-7-|--------5-7-0---------7-0----|
D  :3-3-3-3-5-5-5-5-5-----5-------|--------------5-----5--------|
A  :------------------------------|-----------------------------|
E  :------------------------------|-----------------------------|
 
E  :0------------------------------|---------------------|-----------------|
B  :----------7-0-------3-5-0------|-------------8-------|-----8-8-x-5---x-|
G  :--5-7-0---------7-0-------3-4-0|--9-0---7-0------7---|-----7-7-x-4---x-|
D  :--------5-----5----------------|5-----5--------------|10-------x-----x-|
A  :-------------------------------|---------------------|-----5-5-x-4---x-|
E  :-------------------------------|---------------------|-----------------|
 
E  :----------------|----------------|----------------|----------------|
B  :8---x-5---x-3-3-|3-3-8-8-x-5---x-|8---x-3---x-5-5-|5-5-8-8-x-5---x-|
G  :7---x-4---x-2-2-|2-2-7-7-x-4---x-|7---x-2---x-4-4-|4-4-7-7-x-4---x-|
D  :----x-----x-----|--------x-----x-|----x-----x-----|--------x-----x-|
A  :7---x-4---x-2-2-|2-2-5-5-x-4---x-|7---x-2---x-4-4-|4-4-5-5-x-4---x-|
E  :----------------|----------------|----------------|----------------|
 
E  :-------------------|----------------|-----------------|
B  :8---x-10-*-10-*-10-|*---8-8-x-3---x-|3---3-3-3-3---3-0|
G  :7---x--9----9----9-|----7-7-x-4---x-|----2-2-2-2------|
D  :----x--------------|--------x-----x-|2----------------|
A  :7---x--9----9----9-|----5-5-x-3---x-|3---2-2-2-2-2----|
E  :-------------------|----------------|-----------------|
 
E  :-------------------------|-------------------------|
B  :------1-0-------------3-0|------1-0-------------3-0|
G  :2-0-------2-0---2-0------|2-0-------2-0---2-0------|
D  :-------------------------|-------------------------|
A  :----1---------0-----2----|----1---------0-----2----|
E  :-------------------------|-------------------------|
 
E  :---------------------------|----------------|----------------|
B  :------1-0------------------|8-8-x-5---x-8---|x-5---x-3-3-3-3-|
G  :2-0-------2-0---------2-0--|7-7-x-4---x-7---|x-4---x-2-2-2-2-|
D  :---------------------------|----x-----x-----|x-----x---------|
A  :----1---------1-1-1-1------|5-5-x-4---x-7---|x-4---x-2-2-2-2-|
E  :---------------------------|----------------|----------------|
 
E  :----------------|----------------|----------------|-------------------|
B  :8-8-x-5---x-8---|x-3---x-5-5-5-5-|8-8-x-5---x-8---|x-10-*-10-*-10-*---|
G  :7-7-x-4---x-7---|x-2---x-4-4-4-4-|7-7-x-4---x-7---|x--9----9----9-----|
D  :----x-----x-----|x-----x---------|----x-----x-----|x------------------|
A  :5-5-x-4---x-7---|x-2---x-4-4-4-4-|5-5-x-4---x-7---|x--9----9----9-----|
E  :----------------|----------------|----------------|-------------------|
 
E  :----------------|--------------------|--------------------------|
B  :8-8-x-3---x-3---|3-3-3-3---3-0-------|1-0-------------3-0-------|
G  :7-7-x-4---x-----|2-2-2-2-------2-0---|----2-0---2-0-------2-0---|
D  :----x-----x-2---|--------------------|--------------------------|
A  :5-5-x-3---x-3---|2-2-2-2-2---------1-|--------0-----2---------1-|
E  :----------------|--------------------|--------------------------|
 
E  :--------------------------|--------------------------|
B  :1-0-------------3-0-------|1-0-------------3-0-------|
G  :----2-0---2-0-------2-0---|----2-0---2-0-------2-0---|
D  :--------------------------|--------------------------|
A  :--------0-----2---------1-|--------0-----2---------1-|
E  :--------------------------|--------------------------|
 
E  :--------------------------|----------------------|----------------|
B  :1-0-------------3-0-------|1-0-----------8-8-x-5-|--x-8---x-5---x-|
G  :----2-0---2-0-------2-0---|----2-0---2-0-7-7-x-4-|--x-7---x-4---x-|
D  :--------------------------|------------------x---|--x-----x-----x-|
A  :--------0-----2---------1-|--------0-----5-5-x-4-|--x-7---x-4---x-|
E  :--------------------------|----------------------|----------------|
 
E  :----------------|----------------|----------------|------------------|
B  :3-3-3-3-8-8-x-5-|--x-8---x-3---x-|5-5-5-5-8-8-x-5-|--x-8---x-10-*-10-|
G  :2-2-2-2-7-7-x-4-|--x-7---x-2---x-|4-4-4-4-7-7-x-4-|--x-7---x--9----9-|
D  :------------x---|--x-----x-----x-|------------x---|--x-----x---------|
A  :2-2-2-2-5-5-x-4-|--x-7---x-2---x-|4-4-4-4-5-5-x-4-|--x-7---x--9----9-|
E  :----------------|----------------|----------------|------------------|
 
E  :-----------------|----------------|-------------------------|
B  :*-10-*---8-8-x-3-|--x-3---3-3-3-3-|--3-0-------1-0----------|
G  :---9-----7-7-x-4-|--x-----2-2-2-2-|------2-0-------2-0---2-0|
D  :-------------x---|--x-2-----------|-------------------------|
A  :---9-----5-5-x-3-|--x-3---2-2-2-2-|2---------1---------0----|
E  :-----------------|----------------|-------------------------|
 
E  :-------------------------|-------------------------|
B  :--3-0-------1-0----------|--3-0-------1-0----------|
G  :------2-0-------2-0---2-0|------2-0-------2-0---2-0|
D  :-------------------------|-------------------------|
A  :2---------1---------0----|2---------1---------0----|
E  :-------------------------|-------------------------|
 
E  :-------------------------|-------------------------|
B  :--3-0-------1-0----------|--3-0-------1-0----------|
G  :------2-0-------2-0---2-0|------2-0-------2-0---2-0|
D  :-------------------------|-------------------------|
A  :2---------1---------0----|2---------1---------0----|
E  :-------------------------|-------------------------|
 
E  :--------------------|-----------------------------|
B  :----------3-0-------|1-0--------------------------|
G  :*-------------2-0---|----2-0---2-0----------------|
D  :--------------------|--------------------3-5-7-9-7|
A  :--------2---------1-|--------0-----3-5-7----------|
E  :--------------------|-----------------------------|
 
E  :-------------------------------|-------------------------------|
B  :-------------------------------|-------------------------------|
G  :-------------------------------|-------------------------------|
D  :5-------------3-5-7-9-7-5------|------3-5-7-9-7-5-------------3|
A  :--9-7-5-3-5-7-------------9-7-5|3-5-7-------------9-7-5-3-5-7--|
E  :-------------------------------|-------------------------------|
 
E  :------------------------|----------------|-------------------|
B  :------------------------|----------------|-------------------|
G  :----------------7-7-7---|----7-7-7-------|7-7-7-7-11-11-11---|
D  :5-7-9-7-5-------5-5-5-*-|----5-5-5-*-----|5-5-5-5--9--9--9-*-|
A  :----------9-7-5-3-3-3---|----3-3-3-------|3-3-3-3--7--7--7---|
E  :------------------------|----------------|-------------------|
 
E  :-------------------|----------------|----------------|
B  :-------------------|----------------|----------------|
G  :----11-11-11-------|9-9-----7-7-7---|----7-7-7-------|
D  :-----9--9--9-*-----|9-9-----5-5-5-*-|----5-5-5-*-----|
A  :-----7--7--7-------|7-7-----3-3-3---|----3-3-3-------|
E  :-------------------|----------------|----------------|
 
E  :-------------------|-------------------|----------------|
B  :-------------------|-------------------|----------------|
G  :7-7-7-7-11-11-11---|----11-11-11-------|9-9-------------|
D  :5-5-5-5--9--9--9-*-|-----9--9--9-*-----|9-9-----------5-|
A  :3-3-3-3--7--7--7---|-----7--7--7-------|7-7-----3-3-3---|
E  :-------------------|-------------------|----------------|
 
E  :----------------|----------------|------------------|----------------|
B  :----------------|----------------|------------------|----------------|
G  :----7-7---------|----7-7---------|----11-11---------|----9-9---------|
D  :5-5-----------5-|5-5-----------9-|9-9-------------9-|9-9-----------5-|
A  :--------3-3-3---|--------7-7-7---|----------7-7-7---|--------3-3-3---|
E  :----------------|----------------|------------------|----------------|
 
E  :----------------|----------------|------------------|----------------|
B  :----------------|----------------|------------------|----------------|
G  :----7-7---------|----7-7---------|----11-11---------|----9-9-7-7-7---|
D  :5-5-----------5-|5-5-----------9-|9-9-------------9-|9-9-----5-5-5-*-|
A  :--------3-3-3---|--------7-7-7---|----------7-7-7---|--------3-3-3---|
E  :----------------|----------------|------------------|----------------|
 
E  :----------------|-------------------|-------------------|
B  :----------------|-------------------|-------------------|
G  :----7-7-7-------|7-7-7-7-11-11-11---|----11-11-11-------|
D  :----5-5-5-*-----|5-5-5-5--9--9--9-*-|-----9--9--9-*-----|
A  :----3-3-3-------|3-3-3-3--7--7--7---|-----7--7--7-------|
E  :----------------|-------------------|-------------------|
 
E  :----------------|----------------|-------------------|
B  :----------------|----------------|-------------------|
G  :9-9-----7-7-7---|----7-7-7-------|7-7-7-7-11-11-11---|
D  :9-9-----5-5-5-*-|----5-5-5-*-----|5-5-5-5--9--9--9-*-|
A  :7-7-----3-3-3---|----3-3-3-------|3-3-3-3--7--7--7---|
E  :----------------|----------------|-------------------|
 
E  :-------------------|----------------|----------------|----------------|
B  :-------------------|----------------|----------------|----------------|
G  :----11-11-11-------|9-9-------------|----7-7---------|----7-7---------|
D  :-----9--9--9-*-----|9-9-----------5-|5-5-----------5-|5-5-----------9-|
A  :-----7--7--7-------|7-7-----3-3-3---|--------3-3-3---|--------7-7-7---|
E  :-------------------|----------------|----------------|----------------|
 
E  :------------------|----------------|----------------|----------------|
B  :------------------|----------------|----------------|----------------|
G  :----11-11---------|----9-9---------|----7-7---------|----7-7---------|
D  :9-9-------------9-|9-9-----------5-|5-5-----------5-|5-5-----------9-|
A  :----------7-7-7---|--------3-3-3---|--------3-3-3---|--------7-7-7---|
E  :------------------|----------------|----------------|----------------|
 
E  :------------------|----------------|----------------|
B  :------------------|----------------|----------------|
G  :----11-11---------|----9-9-7-7-7---|--7---7---------|
D  :9-9-------------9-|9-9-----5-5-5-*-|--5-*-5-*-------|
A  :----------7-7-7---|--------3-3-3---|--3---3---------|
E  :------------------|----------------|----------------|
 
E  :-----------------------|--------10-10-10-10----------------|
B  :--------1-1-1-1-1-1-8-8|8-8-8-8-------------1-1-1-1-1-1-8-8|
G  :-----------------------|-----------------------------------|
D  :-----------------------|-----------------------------------|
A  :-----------------------|-----------------------------------|
E  :-----------------------|-----------------------------------|
 
E  :--------10-10-10-10------------------|
B  :8-8-8-8-------------5-5-5-5-5-5-12-12|
G  :-------------------------------------|
D  :-------------------------------------|
A  :-------------------------------------|
E  :-------------------------------------|
 
E  :------------14-14-14-14------------------|
B  :12-12-12-12-------------5-5-5-5-5-5-12-12|
G  :-----------------------------------------|
D  :-----------------------------------------|
A  :-----------------------------------------|
E  :-----------------------------------------|
 
E  :------------12-12-12-12----------------|
B  :12-12-12-12-------------1-1-1-1-1-1-8-8|
G  :---------------------------------------|
D  :---------------------------------------|
A  :---------------------------------------|
E  :---------------------------------------|
 
E  :--------10-10-10-10----------------|
B  :8-8-8-8-------------1-1-1-1-1-1-8-8|
G  :-----------------------------------|
D  :-----------------------------------|
A  :-----------------------------------|
E  :-----------------------------------|
 
E  :--------10-10-10-10------------------|
B  :8-8-8-8-------------5-5-5-5-5-5-12-12|
G  :-------------------------------------|
D  :-------------------------------------|
A  :-------------------------------------|
E  :-------------------------------------|
 
E  :------------14-14-14-14------------------|
B  :12-12-12-12-------------5-5-5-5-5-5-12-12|
G  :-----------------------------------------|
D  :-----------------------------------------|
A  :-----------------------------------------|
E  :-----------------------------------------|
 
E  :------------12-12-12-12----------------|
B  :12-12-12-12-------------1-1-1-1-1-1-8-8|
G  :---------------------------------------|
D  :---------------------------------------|
A  :---------------------------------------|
E  :---------------------------------------|
 
E  :--------10-10-10-10----------------|
B  :8-8-8-8-------------1-1-1-1-1-1-8-8|
G  :-----------------------------------|
D  :-----------------------------------|
A  :-----------------------------------|
E  :-----------------------------------|
 
E  :--------10-10-10-10------------------|
B  :8-8-8-8-------------5-5-5-5-5-5-12-12|
G  :-------------------------------------|
D  :-------------------------------------|
A  :-------------------------------------|
E  :-------------------------------------|
 
E  :------------14-14-14-14------------------|
B  :12-12-12-12-------------5-5-5-5-5-5-12-12|
G  :-----------------------------------------|
D  :-----------------------------------------|
A  :-----------------------------------------|
E  :-----------------------------------------|
 
E  :------------12-12-12-12----------------|
B  :12-12-12-12-------------1-1-1-1-1-1-8-8|
G  :---------------------------------------|
D  :---------------------------------------|
A  :---------------------------------------|
E  :---------------------------------------|
 
E  :--------10-10-10-10------------------|
B  :8-8-8-8-------------5-5-5-5-5-5-12-12|
G  :-------------------------------------|
D  :-------------------------------------|
A  :-------------------------------------|
E  :-------------------------------------|
 
E  :------------14-14-14-14------------------|
B  :12-12-12-12-------------5-5-5-5-5-5-12-12|
G  :-----------------------------------------|
D  :-----------------------------------------|
A  :-----------------------------------------|
E  :-----------------------------------------|
 
E  :------------12-12-12-12--------|----------------|----------------|
B  :12-12-12-12--------------------|6-6-6-6-6-6-6-6-|6-6-6-6-6-6-6-6-|
G  :-------------------------------|5-5-5-5-5-5-5-5-|5-5-5-5-5-5-5-5-|
D  :-------------------------------|----------------|----------------|
A  :-------------------------------|5-5-5-5-5-5-5-5-|5-5-5-5-5-5-5-5-|
E  :-------------------------------|----------------|----------------|
 
E  :----------------|----------------|------------------|----------------|
B  :3-3-3-3-3-3-3-3-|3-3-3-3-3-3-3-3-|1-1-1-1-1-1-1-1-1-|1-1-1-1-1-1-1-1-|
G  :2-2-2-2-2-2-2-2-|2-2-2-2-2-2-2-2-|2-2-2-2-2-2-2-2-2-|2-2-2-2-2-2-2-2-|
D  :----------------|----------------|------------------|----------------|
A  :2-2-2-2-2-2-2-2-|2-2-2-2-2-2-2-2-|1-1-1-1-1-1-1-1-1-|1-1-1-1-1-1-1-1-|
E  :----------------|----------------|------------------|----------------|
 
E  :----------------|----------------|----------------|----------------|
B  :8-8-8-8-8-8-8-8-|6-6-6-6-6-6-6-6-|6-6-6-6-6-6-6-6-|6-6-6-6-6-6-6-6-|
G  :7-7-7-7-7-7-7-7-|7-7-7-7-7-7-7-7-|5-5-5-5-5-5-5-5-|5-5-5-5-5-5-5-5-|
D  :----------------|----------------|----------------|----------------|
A  :7-7-7-7-7-7-7-7-|6-6-6-6-6-6-6-6-|5-5-5-5-5-5-5-5-|5-5-5-5-5-5-5-5-|
E  :----------------|----------------|----------------|----------------|
 
E  :----------------|----------------|------------------|----------------|
B  :3-3-3-3-3-3-3-3-|3-3-3-3-3-3-3-3-|1-1-1-1-1-1-1-1-1-|1-1-1-1-1-1-1-1-|
G  :2-2-2-2-2-2-2-2-|2-2-2-2-2-2-2-2-|2-2-2-2-2-2-2-2-2-|2-2-2-2-2-2-2-2-|
D  :----------------|----------------|------------------|----------------|
A  :2-2-2-2-2-2-2-2-|2-2-2-2-2-2-2-2-|1-1-1-1-1-1-1-1-1-|1-1-1-1-1-1-1-1-|
E  :----------------|----------------|------------------|----------------|
 
E  :----------------|----------------|----------------|----------------|
B  :8-8-8-8-8-8-8-8-|6-6-6-6-6-6-6-6-|----------------|----------------|
G  :7-7-7-7-7-7-7-7-|7-7-7-7-7-7-7-7-|----------------|----------------|
D  :----------------|----------------|----------------|----------5---7-|
A  :7-7-7-7-7-7-7-7-|6-6-6-6-6-6-6-6-|----------------|3-5---7---------|
E  :----------------|----------------|----------------|----------------| 

E  :------------------|----------------|----------------|----------------|
B  :------------------|----------------|----------------|----------------|
G  :------7---7-9-7---|--7---7-----5---|5-------7---7---|----------------|
D  :--9-------------9-|--9-*-9-----7-*-|7---9-7---*-----|----------5---7-|
A  :------------------|----------------|--------5---5---|3-5---7---------|
E  :------------------|----------------|----------------|----------------|
 
E  :------------------|----------------|--------------------------|
B  :------------------|------------8---|----------------8---7-8-7-|
G  :------7---7-9-7---|--9-7-9-7-------|7-9-7-7-9-9-7-7-----------|
D  :--9-------------9-|----------5-----|--------------------------|
A  :------------------|----------------|--------------------------|
E  :------------------|----------------|--------------------------|

 
E  :------0---0-----|------------------|----3-5-3-3-5-5-3-3-3---|
B  :----8---8-------|8-7---------------|--------------------5-*-|
G  :9-----------7---|----5---4-5-4---7-|0-----------------------|
D  :----------------|--------------5---|------------------------|
A  :----------------|------------------|------------------------|
E  :----------------|------------------|------------------------|
 
E  :3-5-3-3-5-5-3-3-3---3-3-5-0|5-5-7-0-3-3-5-0-3---3-3-5-0|
B  :----------------5-*--------|----------------5-*--------|
G  :---------------------------|---------------------------|
D  :---------------------------|---------------------------|
A  :---------------------------|---------------------------|
E  :---------------------------|---------------------------|
 
E  :5-5-7-0-3-3-5-0-3-5-3-3-5-5-3-3|3---3-5-0-7-0-3-5-7-0|
B  :-------------------------------|5-*------------------|
G  :-------------------------------|---------------------|
D  :-------------------------------|---------------------|
A  :-------------------------------|---------------------|
E  :-------------------------------|---------------------|
 
E  :------5-2-0----------------|-------------------|
B  :5-8-0-------4-5-0-5-5-5-5--|-5-5-5-5-----------|
G  :------------------------7-*|-------8-*---------|
D  :---------------------------|-------------------|
A  :---------------------------|-------------------|
E  :---------------------------|-------------------|
Добавлено: 19.11.2013
Другие материалы по этой песне:
  • Аккорды и текст

Страница создана 19.11.2013
http://primanota.ru/misc-unsigned-bands/city-of-ifa-sorry-kiddo-chords.htm
Привет, Гость.
Предлагаем пройти революционный курс по гитаре.
Подарок от PrimaNota.Ru, забирай!